Song name
# A B C D E F G H I J K L M N O P Q R S T U V W X Y Z

Nine Inch Nails - I Would For You tab

-----------------------------------------------------------------------------
                             "I WOULD FOR YOU"- Nine Inch Nails
-----------------------------------------------------------------------------
Tabbed by:decayingsinner
E-mail:joeghartman@verizon.net


I think I have the solo at the end down, but can not figure out the rest.  The
chorus has a lot of layers going on.


Tuning: Drop D

e|---------------------------------------------------------------------------|
B|---------------------------------------------------------------------------|
G|---18 18 18 18\17--12-14-15-15-15-15-15-15-15-15---------------------------|
D|---------------------------------------------------------------------------|
A|---16 16 16 16\15--10-12-13-13-13-13-13-13-13-13---------------------------|
D|---------------------------------------------------------------------------|

e|--------------------------------------------------------------------------|
B|--------------------------------------------------------------------------|
G|----18-18-18-18\17--12-14-15-15-15/16\15-15-15-15-------------------------|
D|--------------------------------------------------------------------------|
A|----16-16-16-16\15--10-12-13-13-13/14\13-13-13-13-------------------------|
D|--------------------------------------------------------------------------|

e|----------------------------------------------------------------------------|
B|----------------------------------------------------------------------------|
G|----18-18-18-18\17--12-14-15-15-15-15-15-15-15-15---------------------------|
D|----------------------------------------------------------------------------|
A|----16-16-16-16\15--10-12-13-13-13-13-13-13-13-13---------------------------|
D|----------------------------------------------------------------------------|

e|--------------------------------------------------------------------------|
B|--------------------------------------------------------------------------|
G|----18-18-18-18\17--12-14-15-15-15-15-15-15-13\12-------------------------|
D|--------------------------------------------------------------------------|
A|----16-16-16-16\15--10-12-13-13-13-13-13-13-11\10-------------------------|
D|--------------------------------------------------------------------------|

Repeats twice

************************************

| /   slide up
| \   slide down
| h   hammer-on
| p   pull-off
| ~   vibrato
| +   harmonic
| x   Mute note
| b   Bend
| pb  Pre-bend
| br  Bend release
| pbr Pre-bend release
| brb Bend release bend

************************************
Tap to rate this tab
 
# A B C D E F G H I J K L M N O P Q R S T U V W X Y Z