Song name
# A B C D E F G H I J K L M N O P Q R S T U V W X Y Z

Nine Inch Nails - All Time Low tab

All Time Low - Nine Inch Nails


intro

--------------------|
--------------------|
--------------------|
-10b1210--10s15-----|
--------------------| x4
--------------------|

Riff

-------------------------------|
-------------------------------|
-------8h10--10--13------------|
-10h12-------------10--13p12---|
-------------------------------|
-------------------------------| x3

------------------------------------|
------------------13-13-13-13-13-13-|
------8h10--11-11-11-11-11-11-11-11-|
-10h12------------------------------|
------------------------------------|
------------------------------------|

chorus

---------------------|
---------------------|
------------12s13----|
--12--14-15----------|
---------------------|
---------------------| x 4
Tap to rate this tab
# A B C D E F G H I J K L M N O P Q R S T U V W X Y Z