Song name
# A B C D E F G H I J K L M N O P Q R S T U V W X Y Z

Nine Inch Nails - Hand That Feeds tab

> bend (half)
 this is my own way I found by putting peices that iv'e learned together.. hope you enjoy!!

INTRO/VERSE
e---------------------------------------------------------------------|
b---------------------------------------------------------------------|
g---------------------------------------------------------------------|(6x's)
d---------------------------------------------------------------------|
a---------------------------------------------------------------------|
E----3-5-5-3-5-8---3-5-5-3-5-8---3-5-5-3-5-8--------------------------|

CHOURS
e-------------------------------------------------------------------------/
b-------------------------------------------------------------------------/
g-----555555(12x's)-44444-2222222(10x's)-0000000(11x's)-------------------/
d-------------------------------------------------------------------------/
a-------------------------------------------------------------------------/
E-------------------------------------------------------------------------/

e-------------------------------------------------------------------------|
b-------------------------------------------------------------------------|
g--->6666666666666666->66666666666----------------------------------------|
d-------------------------------------------------------------------------|
a-------------------------------------------------------------------------|
E-------------------------------------------------------------------------|

go back to the first chours part and stop at the slashes!! then go to the into and do it 
times..

SOLO
e-------------8-8-10--------------------------------------------------|
b--10-10-8-8---------8-10-10------------------------------------------|
g---------------------------------------------------------------------|
d-----------------------------10-10-12-12-----------------------------|(3x's)
a------------------------------------------>10------------------------|
E---------------------------------------------------------------------|

then go back to intro and play till end!!!


INTRO  6 times
CHOURS 1 times
INTRO  8 times
SOLO   3 times
INTRO  TILL END
Tap to rate this tab
# A B C D E F G H I J K L M N O P Q R S T U V W X Y Z