Song name
# A B C D E F G H I J K L M N O P Q R S T U V W X Y Z

Nine Inch Nails - Everyday Is Exactly The Same tab

Alright... so this isn't very organized, but I'm lazy and I dont feel like making it
look all pretty. This is my first tab on this site, please rate honestly. I think it
sounds okay... it might not be perfect, but i think it sounds okay. I still have to
finish it... which wont be long. Give me a week or so, and it will be done. i promise.

Standard Tuning

[intro]
e--------------------------------------------------------|
b--8-7---5-3---8-7---10-8--------8-7---5-3---8-7---13-12-|
g--------------------------------------------------------|
d--------------------------------------------------------|
a--------------------------------------------------------|
E--------------------------------------------------------|


[verse]
e------------------------------------|
b------------------------------------|
g------------------------------------|
d-7-7-7-7-7-7-7-7----3-3-3-3-3-3-3-3-|     x3
a-7-7-7-7-7-7-7-7----3-3-3-3-3-3-3-3-|
E-5-5-5-5-5-5-5-5----1-1-1-1-1-1-1-1-|

[verse continued]
e--------------------------------------------|
b--------------------------------------------|
g--------------------------------------------|
d-10-10-10-10-10-10-10-10----8-8-8-8-8-8-8-8-|
a-10-10-10-10-10-10-10-10----8-8-8-8-8-8-8-8-|
E-8--8--8--8--8--8--8--8-----6-6-6-6-6-6-6-6-|


[chorus]
e--------------------------------------------------------------|
b--------------------------------------------------------------|
g---------------2-2-2-2-2-2-2-2--5-5-5-5-5-5-------------------|
d-2-2-2-2-2-2---2-2-2-2-2-2-2-2--5-5-5-5-5-5---5-5-5-5-5-5-5-5-|
a-2-2-2-2-2-2---0-0-0-0-0-0-0-0--3-3-3-3-3-3---5-5-5-5-5-5-5-5-|
E-0-0-0-0-0-0----------------------------------3-3-3-3-3-3-3-3-|
Tap to rate this tab
# A B C D E F G H I J K L M N O P Q R S T U V W X Y Z