Song name
# A B C D E F G H I J K L M N O P Q R S T U V W X Y Z

Nine Inch Nails - Got Addiction tab

This is the new song got addiction the hot band nine inch nails. note this is me first 
so yeah dont say stuff if it dont sound right.

Guitarist Slage users a gibson les paul with effects pedals and sustainers so yeah make 
your own mine sounds good doing it fast so do wateva feels good.  Kayne users a 
fender stratocaster

Email me at: nobodylikesabuttmunch@hotmail.com
i am more than happy if people emailing me to correct the song

intro
e|----------------------------------|
b|----------------------------------|
g|----------------------------------|
d|5-5-5-5-8-8-8-8-7-7-7-7-7-7-7-----|    X2
a|5-5-5-5-8-8-8-8-7-7-7-7-7-7-7-----|
E|3-3-3-3-6-6-6-6-5-5-5-5-5-5-5-----|

e|------------------------------|
b|------------------------------|
g|------------------------------|
d|5-5-5-5-7-7-7-7-3-3-3-3-5-5-5-|
a|5-5-5-5-7-7-7-7-3-3-3-3-5-5-5-|
E|3-3-3-3-5-5-5-5-1-1-1-1-3-3-3-|

Base riff played through the whole song
e|------------------------------------|
b|------------------------------------|
g|----------------------------5-5-5-5-|
d|3-3-3-3-3-3--6-6-6-6-6--6-6-3-3-3-3-|
a|1-1-1-1-1-1-4-4-4-4-4-6-6-6---------|
E|------------------------------------|
Tap to rate this tab
# A B C D E F G H I J K L M N O P Q R S T U V W X Y Z