Song name
# A B C D E F G H I J K L M N O P Q R S T U V W X Y Z

Nine Inch Nails - Physical Youre So tab

#----------------------------------PLEASE NOTE---------------------------------#
#This file is the author's own work and represents their interpretation of the #
#song. You may only use this file for private study, scholarship, or research. #
#------------------------------------------------------------------------------#

PHYSICAL (YOU'RE SO)
As recorded by Nine Inch Nails
(From the 1993 EP BROKEN)

Transcribed by scott666
	

Words and Music by Trent Reznor

Gtr I (E A D G B E) - 'Guitar 1'
Gtr II (E A D G B E) - 'Guitar 2'

 Intro
  Q=80
                 E5
 4/4
  Gtr I
                 PM----------------------------|
  Wx4            E E E E E E E E  3x E E E E E E   Q
|------------||-------------------||-------------------|
|------------||o-----------------o||-------------------|
|------------||-------------------||-------------------|
|------------||-------------------||-------------------|
|------------||o-2-2-2-2-2-2-2-2-o||-2-2-2-2-2-2-------|
|------------||--0-0-0-0-0-0-0-0--||-0-0-0-0-0-0-/12\--|


                                             Verse
    E5                        G E5G           E5
    PM------------------------------------------------------|
    E E E E E E E E   E E E E E E Q    4x     E E E E E E E E  7x
||------------------|------------------||-||-------------------||
||o-----------------|-----------------o||-||o-----------------o||
||------------------|------------------||-||-------------------||
||------------------|------------------||-||-------------------||
||o-2-2-2-2-2-2-2-2-|-2-2-2-2-2-2-2\--o||-||o-2-2-2-2-2-2-2-2-o||
||--0-0-0-0-0-0-0-0-|-0-0-0-0-3-0-3\---||-||--0-0-0-0-0-0-0-0--||


            D5E5D5    E5
    Gtr I
    PM----------------------------------------------------|
    E E E E E E Q     E E E E E E E E  4x E E E E E E +E  E
||------------------|------------------||-------------------||
||o-----------------|-----------------o||-------------------||
||------------------|------------------||-------------------||
||------------------|------------------||-------------------||
||o-2-2-2-2-2-2-2\--|-2-2-2-2-2-2-2-2-o||-2-2-2-2-2-2-(2)-2-||
||--0-0-0-0-3-0-3\--|-0-0-0-0-0-0-0-0--||-0-0-0-0-0-0-(0)-0-||
|
|   Gtr II
|   E E E E E E Q     E E E E E E E E  4x E E E E E E +E  E
||------------------|------------------||-------------------||
||o-----------------|-----------------o||-------------------||
||----------7---7\--|------------------||-------------------||
||--2-2-2-2-7-2-7\--|-2-2-2-2-2-2-2-2--||-2-2-2-2-2-2-(2)-2-||
||o-2-2-2-2-5-2-5\--|-2-2-2-2-2-2-2-2-o||-2-2-2-2-2-2-(2)-2-||
||--0-0-0-0---0-----|-0-0-0-0-0-0-0-0--||-0-0-0-0-0-0-(0)-0-||


 Chorus
  A5                          D5      E5                  G#5
  Gtrs I, II
  E E E E E E E E   E E E E E E E E   W          +H.      Q
|-----------------|-----------------|----------|---------------|
|-----------------|-----------------|----------|---------------|
|-----------------|-----------7-7-7-|-9--------|-(9)-----------|
|-7-7-7-7-7-7-7-7-|-7-7-7-7-7-7-7-7-|-9--------|-(9)-----------|
|-7-7-7-7-7-7-7-7-|-7-7-7-7-7-5-5-5-|-7--------|-(7)------6b8--|
|-5-5-5-5-5-5-5-5-|-5-5-5-5-5-------|----------|----------4b6--|


  A5                          D5      E5
  E E E E E E E E   E E E E E E E E   W          +W
|-----------------|-----------------|----------|--------||
|-----------------|-----------------|----------|--------||
|-----------------|-----------7-7-7-|-9--------|-(9)----||
|-7-7-7-7-7-7-7-7-|-7-7-7-7-7-7-7-7-|-9--------|-(9)----||
|-7-7-7-7-7-7-7-7-|-7-7-7-7-7-5-5-5-|-7--------|-(7)----||
|-5-5-5-5-5-5-5-5-|-5-5-5-5-5-------|----------|--------||


   Pre-Verse               Verse
    E5                                                G E5G
    Gtr I
    PM----------------------------------------------------|
    E E E E E E E E  8x     E E E E E E E E   E E E E E E Q    8x
||-------------------||-||------------------|------------------||
||o-----------------o||-||o-----------------|-----------------o||
||-------------------||-||------------------|------------------||
||-------------------||-||------------------|------------------||
||o-2-2-2-2-2-2-2-2-o||-||o-2-2-2-2-2-2-2-2-|-2-2-2-2-2-2-2\--o||
||--0-0-0-0-0-0-0-0--||-||--0-0-0-0-0-0-0-0-|-0-0-0-0-3-0-3\---||
|
|   Gtr II
|   PM------------|
|   E E E E E E E E  8x     E E E E E E E E   E E E E E E Q    8x
||-------------------||-||------------------|------------------||
||o-----------------o||-||o-----------------|-----------------o||
||-------------------||-||------------------|---------7---7\---||
||-------------------||-||--2-2-2-2-2-2-2-2-|-2-2-2-2-7-2-7\---||
||o-2-2-2-2-2-2-2-2-o||-||o-2-2-2-2-2-2-2-2-|-2-2-2-2-5-2-5\--o||
||--0-0-0-0-0-0-0-0--||-||--0-0-0-0-0-0-0-0-|-0-0-0-0---0------||


 Chorus
  A5                          D5      E5                  G#5
  Gtrs I, II
  E E E E E E E E   E E E E E E E E   W          +H.      Q
|-----------------|-----------------|----------|---------------|
|-----------------|-----------------|----------|---------------|
|-----------------|-----------7-7-7-|-9--------|-(9)-----------|
|-7-7-7-7-7-7-7-7-|-7-7-7-7-7-7-7-7-|-9--------|-(9)-----------|
|-7-7-7-7-7-7-7-7-|-7-7-7-7-7-5-5-5-|-7--------|-(7)------6b8--|
|-5-5-5-5-5-5-5-5-|-5-5-5-5-5-------|----------|----------4b6--|


  A5                          D5      E5
  E E E E E E E E   E E E E E E E E   W          +W
|-----------------|-----------------|----------|--------||
|-----------------|-----------------|----------|--------||
|-----------------|-----------7-7-7-|-9--------|-(9)----||
|-7-7-7-7-7-7-7-7-|-7-7-7-7-7-7-7-7-|-9--------|-(9)----||
|-7-7-7-7-7-7-7-7-|-7-7-7-7-7-5-5-5-|-7--------|-(7)----||
|-5-5-5-5-5-5-5-5-|-5-5-5-5-5-------|----------|--------||


 Interlude
  +W           +W           +W           +W
|------------|------------|------------|--------|
|------------|------------|------------|--------|
|-(9)--------|-(9)--------|-(9)--------|-(9)----|
|-(9)--------|-(9)--------|-(9)--------|-(9)----|
|-(7)--------|-(7)--------|-(7)--------|-(7)----|
|------------|------------|------------|--------|


    E5                        D5E5D5
    Gtr I
    PM----------------------------|
    E E E E E E E E   E E E E E E Q    4x
||------------------|------------------||
||o-----------------|-----------------o||
||------------------|------------------||
||------------------|------------------||
||o-2-2-2-2-2-2-2-2-|-2-2-2-2-2-2-2\--o||
||--0-0-0-0-0-0-0-0-|-0-0-0-0-3-0-3\---||
|
|   Gtr II
|   E E E E E E E E   E E E E E E Q    4x
||------------------|------------------||
||o-----------------|-----------------o||
||------------------|---------7---7\---||
||--2-2-2-2-2-2-2-2-|-2-2-2-2-7-2-7\---||
||o-2-2-2-2-2-2-2-2-|-2-2-2-2-5-2-5\--o||
||--0-0-0-0-0-0-0-0-|-0-0-0-0---0------||


    E5                        D5E5D5
    Gtrs I, II
    E E E E E E E E   E E E E E E Q    4x
||------------------|------------------||
||o-----------------|-----------------o||
||------------------|---------7---7\---||
||--2-2-2-2-2-2-2-2-|-2-2-2-2-7-2-7\---||
||o-2-2-2-2-2-2-2-2-|-2-2-2-2-5-2-5\--o||
||--0-0-0-0-0-0-0-0-|-0-0-0-0---0------||


   Outro
    E5   E5              D5 A5 G5
    Q.   H    +E    +Q   Q  Q  Q   3x Wx8
||----------------|----------------||--------*|
||o---------------|---------------o||--------*|
||-------9----(9)-|-(9)--7---------||--------*|
||--2----9----(9)-|-(9)--7--7--5---||--------*|
||o-2----7----(7)-|-(7)--5--7--5--o||--------*|
||--0-------------|---------5--3---||--------*|



Duration Legend
---------------
W - whole; H - half; Q - quarter; E - 8th; S - 16th; T - 32nd; X - 64th; a - acciaccatura
+ - note tied to previous; . - note dotted; .. - note double dotted
Uncapitalized letters represent notes that are staccato (1/2 duration)
Irregular groupings are notated above the duration line
Duration letters will always appear directly above the note/fret number it represents the
duration for.  Duration letters with no fret number below them represent rests.  Multi-
bar rests are notated in the form Wxn, where n is the number of bars to rest for.  Low
melody durations appear below the staff

Tablature Legend
----------------
 h   - hammer-on
 p   - pull-off
 b   - bend
 pb  - pre-bend
 r   - bend release (if no number after the r, then release immediately)
 /\  - slide into or out of (from/to "nowhere")
 s   - legato slide
 S   - shift slide
 - natural harmonic
[n]  - artificial harmonic
n(n) - tapped harmonic
 ~   - vibrato
 tr  - trill
 T   - tap
 TP  - trem. picking
 PM  - palm muting
\n/  - tremolo bar dip; n = amount to dip
 \n  - tremolo bar down
 n/  - tremolo bar up
/n\  - tremolo bar inverted dip
 =   - hold bend; also acts as connecting device for hammers/pulls
 <> - volume swell (louder/softer)
 x   - on rhythm slash represents muted slash
 o   - on rhythm slash represents single note slash

Misc Legend
-----------
 |  - bar
||  - double bar
||o - repeat start
o|| - repeat end
*|  - double bar (ending)
 :  - bar (freetime)
 $  - Segno
 &  - Coda
Tempo markers -  = BPM(8/16=s8/s16), where s8 = swing 8ths, s16 = swing 16ths

Tap to rate this tab
# A B C D E F G H I J K L M N O P Q R S T U V W X Y Z