Guitaretab - guitar tabs
Song name
# A B C D E F G H I J K L M N O P Q R S T U V W X Y Z

Nine Inch Nails - Non Entity tab

Non-Entity by Nine Inch Nails
Written by Trent Reznor

As tabbed by the Canna-Kava-Man, on November 2008. It's not exact,
in listening to the song, you can here Trent alters the theme here
and there. I'll let you embelish it ;-)

[Intro]

e:------1-2--------------------|-----------------------------|
B:-----------------------------|--------4----------4---------|
G:-----------------------------|----3-2---2----3-2---2-------|
D:----3------------------------|----1----------1-------------|
A:-----------------------------|-----------------------------|
E:-----------------------------|-----------------------------|


e:------1-2-------13-14--------|-----------------------------|
B:-----------------------------|--------4----------4---------|
G:-----------------------------|----3-2---2----3-2---2-------|
D:----3------------------------|----1----------1-------------|
A:-----------------------------|-----------------------------|
E:-----------------------------|-----------------------------|

[Verse]

e:------1-2-------13-14--------|-----------------------------|
B:-----------------------------|--------4--------------------|
G:-----------------------------|----3-2---2----3-2-----------|
D:-----------------------------|----1----------1---3-1-------|
A:-----------------------------|-----------------------------|
E:----1------------------------|-----------------------------|
                        The sky is not the same, shade of blue

e:------1-2-------13-14--------|-----------------------------|
B:-----------------------------|--------4----------4---------|
G:-----------------------------|----3-2---2----3-2---2-------|
D:-----------------------------|----1----------1-------------|
A:-----------------------------|-----------------------------|
E:----1------------------------|-----------------------------|
                        Every single thing, I believe isn't true


e:------1-2-------13-14--------|-----------------------------|
B:-----------------------------|--------4----------4---------|
G:-----------------------------|----3-2---2----3-2---2-------|
D:-----------------------------|----1----------1-------------|
A:-----------------------------|-----------------------------|
E:----1------------------------|-----------------------------|
                        Missing in the maze, of monochrome


e:------1-2-------13-14--------|-----------------------------|
B:-----------------------------|--------4----------4---------|
G:-----------------------------|----3-2---2----3-2---2-------|
D:-----------------------------|----1----------1-------------|
A:-----------------------------|-----------------------------|
E:----1------------------------|-----------------------------|

                        How did I get here, how can I go home

[Chorus]
[ Tab from: http://www.guitaretab.com/n/nine-inch-nails/80816.html ]
e:-----------------------------|-----------------------------|
B:---3-----3-------------------|--------------------4--6-----|
G:---3-----3-----8-----8-------|---8-----8-----8-------------|
D:---3-----3-----6-----6-------|---6-----6-----6-------------|
A:---1-----1-----4-----4-------|-----------------------------|
E:-----------------------------|---4-----4-----4-------------|
	
	The echoes in my eyes, of all they used to see

e:-----------------------------|-----------------------------|
B:---3-----3-------------------|--------------------4--6-----|
G:---3-----3-----8-----8-------|---8-----8-----8-------------|
D:---3-----3-----6-----6-------|---6-----6-----6-------------|
A:---1-----1-----4-----4-------|-----------------------------|
E:-----------------------------|---4-----4-----4-------------|

	Burning down the world, the ashes and debris

e:-----------------------------|-----------------------------|
B:---3-----3-------------------|--------------------4--6-----|
G:---3-----3-----8-----8-------|---8-----8-----8-------------|
D:---3-----3-----6-----6-------|---6-----6-----6-------------|
A:---1-----1-----4-----4-------|-----------------------------|
E:-----------------------------|---4-----4-----4-------------|

	And all thatís left of me, non-entity

[Outro]

e:------1-2-------13-14--------|-----------------------------|
B:-----------------------------|-----------------------------|
G:-----------------------------|----3--2--3--2--3--2--3--2---|
D:-----------------------------|----1------------------------|
A:-----------------------------|-----------------------------|
E:----1------------------------|-----------------------------|

e:-----------------------------|-----------------------------|
B:-----------------13----------|-----------------------------|
G:-------11-12-----------12----|------------------0----------|
D:-----------------------------|-----------------------------|
A:-----------------------------|----13---12---8--------------|
E:----13-----------------------|----11-----------------------|

e:-----5-6-5-------------------|---13-14-13------------------|
B:-----------------------------|----------------10-11-10-----|
G:-----------------------------|-----------------------------|
D:-----------------------------|-----------------------------|
A:-----------------------------|-----------------------------|
E:---1-------------------------|---11----------9-------------|


e:-----13-14-13----------------|---13-14-13------------------|
B:-----------------------------|----------------10-11-10-----|
G:------------------14-15-14---|-------------------------10--|
D:-----------------------------|-----------------------------|
A:-----------------------------|-----------------------------|
E:---1-------------------------|---11----------9-------------|


e:-----------------------------|
B:-----------------------------|
G:---0---------2---------------|
D:-----------------------------|
A:-----------------------------|
E:-------------1---------------|

2nd Verse:
----------
Try to stand in line, try to obey
The ghost of what I was, keeps getting in the way
Staring at the sun, Iím blinded by the light
Now Iím afraid Iím fading out of sight

2nd Chorus:
-----------
The echoes in my eyes, of all they used to see
Burning down the world, the ashes and debris
And all thatís left of you, and all thatís left of me
All have washed away, non-entity...
Related for Non Entity tab