Song name
# A B C D E F G H I J K L M N O P Q R S T U V W X Y Z

Nine Inch Nails - Good Soldier tab

The Good Soldier (DROP C)

Verse GT. 1:
e|----------------------------------|
b|----------------------------------|
G|----------------------------------|
D|----------------------------------|
A|-3-3-3-3-3-31---3-3-3-3-3-3-3-1---|
C|----------------------------------|

Verse GT. 2:
e|----------------------------------|
b|----------------------------------|
G|----------------------------------|
D|----------------------------------|
A|----------------------------------|
C|0---0-3-4-5h6---------------------|

Chorus (Hard To Hear):
e|----------------------------------|
b|----------------------------------|
G|----------------------------------|
D|----------------------------------|
A|-3---3-6-7-8h9--------------------|
C|----------------------------------|

Outro:
e|---------------------------------------------|
b|---------------------------------------------|
G|---------------------------------------------|
D|----------------------------5-5-5-5----------|
A|--------------5-5-5-5------------------------|
C|5-5-5-5-3---3----------5--5---------3h5h3-3-0|
Tap to rate this tab
# A B C D E F G H I J K L M N O P Q R S T U V W X Y Z