Song name
# A B C D E F G H I J K L M N O P Q R S T U V W X Y Z

Nine Inch Nails - Capital G tab

Song: Capital G
Band: Nine Inch Nails
Tuning: Drop D (D-A-D-G-B-e)




Verse: no guitar


Chorus
  (x24) (x22)
|-----------------|
|-----------------|
|--11----12-------|
|---x-----x-------| x2
|---9----10-------|
|-----------------|

Pre-Verse
|--------------------------------------|
|--------------------------------------|
|--------------------------------------|
|3h5^5^5^5^5^5^-3---3h5^5^5^5^5^5^-3---|
|--------------5-5----------------5-5--|
|--------------------------------------|

Verse: no guitar


Chorus
  (x24) (x22)
|-----------------|
|-----------------|
|--11----12-------|
|---x-----x-------| x4
|---9----10-------|
|-----------------|

2nd Pre-Verse
|--------------------------------------|
|--------------------------------------|
|--------------------------------------|
|3h5^5^5^5^5^5^-3---3h5^5^5^5^5^5^-3---| x2 second time around,leave out the
|--------------5-5----------------5-5--| last 5,3,5
|--------------------------------------|


Solo
|-----------------------------(22)-|
|----------------------------------|
|----------------------------------|x2
|----------------------------------|
|-3-5------------3-5---------------|
|-----3-5-3-5-3-0-----3-5-3-5------|

(in background)
|-----------|
|-----------|
|---17------|
|----x------|
|---15------|
|-----------|

Chorus
  (x24) (x22)
|-----------------|
|-----------------|
|--11----12-------|
|---x-----x-------| x4
|---9----10-------|
|-----------------|

Outro(same as 2nd pre-verse)
|--------------------------------------|
|--------------------------------------|
|--------------------------------------|
|3h5^5^5^5^5^5^-3---3h5^5^5^5^5^5^-3---| x2
|--------------5-5----------------5-5--|
|--------------------------------------|
Tap to rate this tab
# A B C D E F G H I J K L M N O P Q R S T U V W X Y Z