Song name
# A B C D E F G H I J K L M N O P Q R S T U V W X Y Z

Nine Inch Nails - Meet Your Master tab

Tune Down 1/2 step

It's funny how everyone says that NIN songs (especially from Year Zero)
are so God damned easy, but no one even can tab them right.
For me personally, Meet your master has got the one of
the most crative guitar work I ever heard.


 Intro

Eb|-----------------------12-----------------------|
Bb|------15----------------------------------------|
Gb|------------------------------------------------|
Db|-14-------12-12---14--------14b15r(14)-------14-|
Ab|------------------------------------------12----|
Eb|------------------------------------------------|

Eb|------10-----12---12---10b11r(10)-------------|
Bb|----------------------------------------------|
Gb|----------------------------------------------|
Db|----------------------------------------------|
Ab|-10--------------------------------10---10----|
Eb|----------------------------------------------|


Eb|-----------------------12-----------------------|
Bb|------15----------------------------------------|
Gb|------------------------------------------------|
Db|-14-------12-12---14--------14b15r(14)-------14-|
Ab|------------------------------------------12----|
Eb|------------------------------------------------|

Eb|------10b11r(10)--12---12---12--------------|
Bb|--------------------------------------------|
Gb|--------------------------------------------|
Db|--------------------------------------------|
Ab|-10-----------------------------------------|
Eb|--------------------------------------------|

 Verse

-------------|----------------------------------------|
-------------|----------------------------------------|
-------------|----------------------------------------|
-------------|-10h11h12------10-----------------------|
-10h11-11h12-|----------10--------------------10---12-|
-------------|-------------0----0---0---0---0----0----|

|----------------------------------------|
|----------------------------------------|
|----------------------------------------|
|-10h11h12------10-----------------------|
|----------10----------------10h11-11h12-|
|-------------0--------------------------|


 additional gtr chorus (expect 1st)
Eb|-19~~~~~~~~~~~~~~~~~~~~~~~~~~~~~~(19)\|-0---|
Bb|--------------------------------------|-----|
Gb|--------------------------------------|-----|
Db|--------------------------------------|-----|
Ab|--------------------------------------|-----|
Eb|--------------------------------------|-----|

 Chorus

Eb|----------------------------------------|
Bb|----------------------------------------|
Gb|----------------14-------14h15----------|
Db|-----13---14p13----13h14----------------|
Ab|----------------------------------------|
Eb|-0--------------------------------------|


Eb|----------------------------------------|
Bb|----------------12---12---12------------|
Gb|---------------------15---15---11-0-0-0-|
Db|-----13------13-------------------------|
Ab|----------15----------------------------|
Eb|-0--------------------------------------|

 Solo

Eb|-10----10b11r(10)--10-------7---------------|
Bb|----------------------9--10--------11r(10)--|
Gb|--------------------------------------------|
Db|--------------------------------------------|
Ab|--------------------------------------------|
Eb|--------------------------------------------|

Eb|-10----10b11r(10)--10-----------------6-----|
Bb|------------------------8----7b8r7----------|
Gb|--------------------------11-------7--------|
Db|---------------------10---------------------|
Ab|--------------------------------------------|
Eb|--------------------------------------------|


 Synth (before "come on down" part)

Eb|--------------------------------------------|
Bb|--------------------------------------------|
Gb|-11-------------------11--------------------|
Db|-12-------------------10--------------------|
Ab|-12-------------------12--------------------|
Eb|-10-------------------10--------------------|

Eb|--------------------------------------------|
Bb|--------------------------------------------|
Gb|-9--------------------12--------------------|
Db|-10-------------------12--------------------|
Ab|-10-------------------10--------------------|
Eb|-8------------------------------------------|

Eb|----------------------7---------------------|
Bb|-10-------------------8---------------------|
Gb|-11-------------------9---------------------|
Db|-12-------------------10--------------------|
Ab|--------------------------------------------|
Eb|--------------------------------------------|

Eb|-(7)----------------------------------------|
Bb|-(8)----------------------------------------|
Gb|-(9)----------------------------------------|
Db|-(10)---------------------------------------|
Ab|--------------------------------------------|
Eb|--------------------------------------------|
Tap to rate this tab
# A B C D E F G H I J K L M N O P Q R S T U V W X Y Z