Song name
# A B C D E F G H I J K L M N O P Q R S T U V W X Y Z

Nine Inch Nails - God Given tab

 artist:Nine Inch Nails
 song:God Given
 album:Year Zero

 standard tuning

 4/4
 

 The whole song is based on just one chord (A) and it's pretty simple 
 to play (practically guitar appears just in the beginning)

 
 00:18

  Guitar

e|-----------0-------------------------|-----------0------------------------|
B|-------------------------------------|------------------------------------|
G|-14---14----------12---14---14\12--0-|-14---14----------12---14---12------|
D|-------------------------------------|------------------------------------|
A|------------------10---12---12\10----|------------------10---12---10------|
E|-------------------------------------|------------------------------------|



 00:27

  Synth

   x16         x16
   
e|-15--------|-15--------|
B|-17--------|-17--------|
G|-----------|-----------|
D|-----------|-----------|
A|-----------|-----------|
E|-----------|-----------|




 Chorus


   Synth

   x13  
   
e|-15------------------------------|---------------------------------|
B|-17------------------------------|---------------------------------|
G|---------------------------------|---------------------------------|
D|---------------------------------|---------------------------------|
A|---------------------------------|---------------------------------|
E|---------------------------------|---------------------------------|
 |
 |                                   x13
 | Guitar/Piano  
e|---------------------------------|-15------------------------------|
B|---------------------------------|-17------------------------------|
G|---------------------------------|---------------------------------|
D|---------------------------------|---------------------------------|
A|---------------------------------|---------------------------------|
E|---------------------------------|---------------------------------|
 |
 | Bass
G|---------------------------------|---------------------------------|
D|---------------------------------|---------------------------------|
A|-0---------------------12-12\0---|---------------------------------|
E|---------------------------------|---------------------------------|

 
 you got the point? If you wanna play it on just one guitar 
 this is the best way:


e|-15-15-15-15-15-15-15-15-15-15-15-15-15-x-x-x-|
B|-17-17-17-17-17-17-17-17-17-17-17-17-17-x-x-x-|
G|----------------------------------------------|
D|----------------------------------------------|
A|----------------------------------------------|
E|----------------------------------------------|


e|-15-15-15-15-15-15-15-15-15-15-15-15-15-x-x-x-|
B|-17-17-17-17-17-17-17-17-17-17-17-17-17-x-x-x-|
G|----------------------------------------------|
D|----------------------------------------------|
A|----------------------------------------------|
E|----------------------------------------------|
Tap to rate this tab
# A B C D E F G H I J K L M N O P Q R S T U V W X Y Z