Song name
# A B C D E F G H I J K L M N O P Q R S T U V W X Y Z

Nine Inch Nails - My Violent Heart tab

Drop Db tuning


 Bass
Gb|-------------------|-------------------|
Db|-------------------|-------------------|
Ab|-0---2-------------|-0---2-------------|
Db|-------------------|-------------------|


 Pre-chorus (before 2nd chorus play just the last bar)

   1        2       3       4

Eb|---------------------------------|---------------------------------|
Bb|---------------------------------|---------------------------------|
Gb|---------------------------------|---------------------------------|
Db|---------------------------------|---------------------------------|
Ab|---------2-2-0-2-2-2-2-2-2-0-2-2-|-0-2-2-2-2-2-2-2-2-2-2-2-2-2-2-2-|
Db|---------------------------------|---------------------------------|



 Chorus
Eb|------12-------12----12---------------------|
Bb|-0----------16----------0-0-0----12p0-12----|
Gb|---------14-------14------------------14----|
Db|--------------------------------------------|
Ab|--------------------------------------------|
Db|--------------------------------------------|

Eb|------12-------12-------12------------------|
Bb|-0----------16-------16----0-0----12p0-0----|
Gb|---------14-------14------------------------|
Db|--------------------------------------------|
Ab|--------------------------------------------|
Db|--------------------------------------------|



 Solo
                |---3--|
Eb|-------12--------------------------------------|
Bb|----------15-16p15p14----16-16-----------------|
Gb|-----------------------------------------------|
Db|-12-13----------------13-----------------------|
Ab|-----------------------------------------------|\
Db|---------------------------------------0-0-1-1-| \
                                                     2x
Eb|-------12-------12-----------------------------| /
Bb|-------------------15-16-----------------------|/
Gb|-----------------------------------------11----|
Db|----------13-14---------------12-14-14b-----14-|
Ab|-----------------------------------------------|
Db|-2---------------------------------------------|


                |---3--|
Eb|-------12--------------------------------------|
Bb|----------15-16p15p14----16-16-----------------|
Gb|-----------------------------------------------|
Db|-12-13----------------13-----------------------|
Ab|-----------------------------------------------|\
Db|---------------------------------------0-0-1-1-| \ 
                                                     2x
Eb|-------12-------12-----------------------------| /
Bb|-------------------15-16-----------------------|/
Gb|-----------------------------------14h15h16----|
Db|----------13-14--------------------14----------|
Ab|------------------------------12---------------|
Db|-2---------------------------------------------|



 Ending

Eb|-7----------------------------7----|-7-------------------7--------7----|
Bb|------------10---------10----------|------------10---------10-------10-|
Gb|--------7------7---9------------9b-|---------------7----------9b-------|4x
Db|---------------------7-------------|--------7h9--------9---------------|
Ab|-----------------------------------|-----------------------------------|
Db|-----------------------------------|-----------------------------------|


Eb|-7----------------------------7----|-----------------------------------|
Bb|------------10-----------10--------|------------10---------10----------|
Gb|--------7------7-------------------|-9---7---------7----------7--------|2x
Db|-------------------9-9-9-----------|--------9p7-----------------7-9b---|
Ab|-----------------------------------|-----------------------------------|
Db|-----------------------------------|-----------------------------------|


Eb|-7-----------------------------7---|-7---------------------------------|
Bb|------------10-----10-----10-------|------------10---------10----------|
Gb|--------7------7------7------------|---------------7----------7--------|
Db|------------------------0----------|--------7h9-----------------7-9b---|
Ab|-----------------------------------|-----------------------------------|
Db|-----------------------------------|-----------------------------------|

Eb|-7-----------------------------7---|-7---------------------------------|
Bb|------------10-----10-----10-------|-----------------------------------|
Gb|--------7------7------7------------|-----------------------------------|
Db|------------------------0----------|-----------------------------------|
Ab|-----------------------------------|-----------------------------------|
Db|-----------------------------------|-----------------------------------|
Tap to rate this tab
# A B C D E F G H I J K L M N O P Q R S T U V W X Y Z