Song name
# A B C D E F G H I J K L M N O P Q R S T U V W X Y Z

Nine Inch Nails - Line Begins To Blur tab

Drop D Tuning

The notes in ( ) mean to only press half way down so the chord sounds muffled 

Main Riff:  

e|--------------x-----------------------------x-----------------------|
B|--------------x-----------------------------x-----------------------|
G|-------------(7)---------------------------(7)----------------------|
D|-0--0--0--0--(7)--0-0-0-0-----0--0--0--0---(7)---0-0-0-0------------|
A|-0--0--0--0--(5)--0-0-0-0-----0--0--0--0---(5)---0-0-0-0------------|
D|-0--0--0--0---x---0-0-0-0-----0--0--0--0----x----0-0-0-0------------|




Chorus:

Repeat

    C      Bb        F        D
e|--------------------------------------------------------------|
B|--5-------6--------13-------3---------------------------------|
G|--5-------7--------14-------2---------------------------------|
D|--5-------8--------15-------4---------------------------------|
A|--7(x8)---8(x8)----15(x8)---5(x8)-----------------------------|
D|--------------------------------------------------------------|


Solo(2:56):

Repeat x3 slight vibrato every note
e|-------------------------------------------------------------|
B|-------------------------------------------------------------|
G|-------------------------------------5b7---------------------|
D|------------------5-7----------------------------------------|
A|----7-8-7---5--8---------7-8-7---5---------------------------|
D|-------------------------------------------------------------|
Tap to rate this tab
 
# A B C D E F G H I J K L M N O P Q R S T U V W X Y Z