Song name
# A B C D E F G H I J K L M N O P Q R S T U V W X Y Z

Nine Inch Nails - Closer To God tab

this is the song "closer to god" by NIN from THE DOWNWARD SPIRAL. it is featured on disc 
of the Deluxe Edition and is a remix to the song "closer"
STANDARD TUNING

\=slide
h=hammer-on
b=bend string

Beginning (all of this is played really fast)
1----------------------------------|
2----------------------------------|
3----------------------------------|
4--0(really fast 24 times)---------|
5------5-7-------------------------|
6----------6-----------------------|

this part is around 1:37 in the song, and i think it is actually played on the keyboard
(play multiple times)
1----------------------------------|
2----------------------------------|
3----------------------------------|
4----------------------------------|
5---66h77h88h99--------------------|
6----------------------------------|

pre-chorus  this part is sorta a screech sound...i think this sounds pretty close

1----------------------------------|
2----4\24--------------------------|     "24" not "2...4"
3----4\24--------------------------|
4----------------------------------|
5----------------------------------|
6----------------------------------|

chorus

1---------------------------------|
2---------------------------------|
3---------------------------------|
4--10-10-10----4-4----------------|
5--10-10-10----4-4----------------|
6---8--8--8----2-2b---------------|

there ya go! theres a lot of other stuff going on in the song, but i think that this is 
of the guitar parts. listen to the song to get the # of times you play each part and timing

Random_Hero
Tap to rate this tab
 
# A B C D E F G H I J K L M N O P Q R S T U V W X Y Z