Song name
# A B C D E F G H I J K L M N O P Q R S T U V W X Y Z

Nine Inch Nails - Pinion tab

Help us improve GuitareTab! Take a short survey!
Nine Inch Nails - Pinion
Broken EP - 1992
Tabbed by Steven Wyatt (rip3149@yahoo.com)

Tuning:Drop D

e|-------------|
B|-------------|
G|-------------|
D|--3--4--5--6\|
A|--3--4--5--6\|
D|--3--4--5--6\|

e|-------------------|
B|-------------------|
G|-------------------|
D|--3--4--5--6--12-10|
A|--3--4--5--6--12-10|
D|--3--4--5--6--12-10|

e|-------------|
B|-------------|
G|-------------|
D|--3--4--5--6\|
A|--3--4--5--6\|
D|--3--4--5--6\|

e|-------------------|
B|-------------------|
G|-------------------|
D|--3--4--5--6--12-10|
A|--3--4--5--6--12-10|
D|--3--4--5--6--12-10|

e|-------------|
B|-------------|
G|-------------|
D|--3--4--5--6\|
A|--3--4--5--6\|
D|--3--4--5--6\|

e|-------------------|
B|-------------------|
G|-------------------|
D|--3--4--5--6--12-10|
A|--3--4--5--6--12-10|
D|--3--4--5--6--12-10|

e|-------------|
B|-------------|
G|-------------|
D|--3--4--5--6\|
A|--3--4--5--6\|
D|--3--4--5--6\|

e|-------------------|
B|-------------------|
G|-------------------|
D|--3--4--5--6--12-10|
A|--3--4--5--6--12-10|
D|--3--4--5--6--12-10|

e|-------------|
B|-------------|
G|-------------|
D|--3--4--5--6\|
A|--3--4--5--6\|
D|--3--4--5--6\|

e|-------------------|
B|-------------------|
G|-------------------|
D|--3--4--5--6--12-10|
A|--3--4--5--6--12-10|
D|--3--4--5--6--12-10|

e|-------------|
B|-------------|
G|-------------|
D|--3--4--5--6\|
A|--3--4--5--6\|
D|--3--4--5--6\|

e|-------------------|
B|-------------------|
G|-------------------|
D|--3--4--5--6--12-10|
A|--3--4--5--6--12-10|
D|--3--4--5--6--12-10|

e|-------------|
B|-------------|
G|-------------|
D|--3--4--5--6\|
A|--3--4--5--6\|
D|--3--4--5--6\|

e|-------------------|
B|-------------------|
G|-------------------|
D|--3--4--5--6--12-10|
A|--3--4--5--6--12-10|
D|--3--4--5--6--12-10|

e|-------------|
B|-------------|
G|-------------|
D|--3--4--5--6\|
A|--3--4--5--6\|
D|--3--4--5--6\|

That's it.  "Wish" begins at the last G# power chord.
Any questions? Email me at rip3149@yahoo.com.
Related for Pinion tab