Song name
# A B C D E F G H I J K L M N O P Q R S T U V W X Y Z

Nine Inch Nails - Big Man With A Gun tab

 artist - NIN
 song - Big Man With A Gun
 album - The Downward Spiral


 Drop D tuning


 00:09

  synth
E|---------------------------------|---------------------------------|
B|---------------------------------|---------------------------------|
G|---------------------------------|---------------------------------|
D|-------------------------------0-|-------------------------------0-|
A|---------------------------1-----|---------------------------1-----|
D|---2-2-2-2-2-2-2-2-2-2-2-2---2---|---2-2-2-2-2-2-2-2-2-2-2-2---2---|



 00:19

 Fig I
E|---------------------------------|--------------------------------|
B|---------------------------------|--------------------------------|
G|---------------------------------|--------------------------------|
D|-0-------1-------2-2-2-2---0-0-0-|-0---1---1---2---2-2-2-2--------|
A|-0-------1-------2-2-2-2---0-0-0-|-0---1---1---2---2-2-2-2--------|
D|-0-------1-------2-2-2-2---0-0-0-|-0---1---1---2---2-2-2-2--------|



 00:57

 Fig II
E|---------------------------------|--------------------------------|
B|---------------------------------|--------------------------------|
G|-7\------------0-0---1-1---2-----|-7\------------0-0---1-1--------|
D|---------------------------------|--------------------------------|
A|---------------------------------|--------------------------------|
D|---------------------------------|--------------------------------|



 01:17

 Fig III

   |-3-| |-3-| |-3-| |-3-| |-3-| |-3-| |-3-| |-3-| 
E|-------------------------------------------------|
B|-------------------------------------------------|
G|-9-9-9-9-9-9-9-9-9-9-9-9-9-9-9-9-9-9-9-9-9-9-9-9-|
D|-------------------------------------------------|
A|-------------------------------------------------|
D|-------------------------------------------------|
Tap to rate this tab
# A B C D E F G H I J K L M N O P Q R S T U V W X Y Z