Song name
# A B C D E F G H I J K L M N O P Q R S T U V W X Y Z

Nine Lashes - Hollow Theory tab

--------------------------------------------------------------------------------------------------
                                         Hollow Theory
--------------------------------------------------------------------------------------------------

Drop A# tuning

Intro (Both guitars)
|------------------------------------------|
|-10-10-10-10-10-10------------------------|
|-x--x--x--x--x--x-------------------------|
|-9--9--9--9--9--9--0-0---0----------------|  4x
|-------------------0-0---0----------------|
|-------------------0-0---0----------------|

Verse (Guitar 1)-2x
|-------------------|-----------------------------------------|
|-10-10-10-10-10-10-|-----------------------------------------|
|-x--x--x--x--x--x--|-------------9-9---9---10-10-10---10-----|
|-9--9--9--9--9--9--|-0-0---0-x-x-x-x---x-x-x--x--x----x--x-x-|
|-------------------|-0-0---0-x-x-7-7---7-x-8--8--8----8--x-x-|
|-------------------|-0-0---0-x-x---------x---------------x-x-|

|-------------------|-------------------------------------|
|-10-10-10-10-10-10-|-------------------------------------|
|-x--x--x--x--x--x--|-------------9-9---9---5-5-5---5-----|
|-9--9--9--9--9--9--|-0-0---0-x-x-x-x---x-x-x-x-x---x-x-x-|
|-------------------|-0-0---0-x-x-7-7---7-x-3-3-3---3-x-x-|
|-------------------|-0-0---0-x-x---------x-----------x-x-|

2nd time, play this:
|-------------------|---------------------------------------------------|
|-10-10-10-10-10-10-|---------------------------------------------------|
|-x--x--x--x--x--x--|-------------9-9---9---5-5-5---5---5-5/7---7-7-----|
|-9--9--9--9--9--9--|-0-0---0-x-x-x-x---x-x-x-x-x---x-x-x-x/x---x-x-x-x-|
|-------------------|-0-0---0-x-x-7-7---7-x-3-3-3---3-x-3-3/5---5-5-x-x-|
|-------------------|-0-0---0-x-x---------x-----------x-------------x-x-|

Verse (Guitar 2)-4x
|------------------------------------------|
|-10-10-10-10-10-10------------------------|
|-x--x--x--x--x--x-------------------------|
|-9--9--9--9--9--9--0-0---0----------------|
|-------------------0-0---0----------------|
|-------------------0-0---0----------------|

Pre-Chorus (Acoustic Guitar 1)-2x
|-------------------------------------------------|
|-------------------------------------------------|
|-2---2-2-2-2-2---2-2-2-2-2---2-2-2-2-2---2---2---|
|-3---3-3-3-3-3---3-3-3-3-3---3-3-3-3-3---3---3---|
|-1---1-1-1-1-1---1-1-1-1-1---1-1-1-1-1---1---1---|
|-------------------------------------------------|

|-------------------------------------------------|
|-------------------------------------------------|
|-2---2-2-2-2-2---2-2-2-2-2---2-2-2-2-2---2---2---|
|-3---3-3-3-3-3---3-3-3-3-3---3-3-3-3-3---3---3---|
|-0---0-0-0-0-0---0-0-0-0-0---0-0-0-0-0---0---0---|
|-0---0-0-0-0-0---0-0-0-0-0---0-0-0-0-0---0---0---|

Pre-Chorus (Acoustic Guitar 2)-2x
|---------------------------------------------------------------|
|-10--10-10-10-10-10--10-10-10-10-10--10-10-10-10-10---10--10---|
|-10--10-10-10-10-10--10-10-10-10-10--10-10-10-10-10---10--10---|
|-8---8--8--8--8--8---8--8--8--8--8---8--8--8--8--8----8---8----|
|---------------------------------------------------------------|
|---------------------------------------------------------------|

|---------------------------------------------------------------|
|-10--10-10-10-10-10--10-10-10-10-10--10-10-10-10-10---10--10---|
|-9---9--9--9--9--9---9--9--9--9--9---9--9--9--9--9----9---9----|
|-7---7--7--7--7--7---7--7--7--7--7---7--7--7--7--7----7---7----|
|---------------------------------------------------------------|
|---------------------------------------------------------------|

That's what I got so far. Figure out the rest and update it soon. God bless!
Tap to rate this tab
# A B C D E F G H I J K L M N O P Q R S T U V W X Y Z