Song name
# A B C D E F G H I J K L M N O P Q R S T U V W X Y Z

Nine Tenths - Stop The Reciprocate tab

-----------------------------------------------------------------
			     Stop the Reciprocate - Nine Tenths
-------------------------------------------------------------------------------
Tabbed by: mitch holstein
Email:i12fan@yahoo.com

Intro: 1X at slow strum
E|--------------------------------------------------------------------------|
B|--------------------------------------------------------------------------|
G|-4-4-4444-7-7-7777-5-5-5555-66667777--4-4-4444-7-7-7777-5-5-5555-3~-5~----|
D|-4-4-4444-7-7-7777-5-5-5555-66667777--4-4-4444-7-7-7777-5-5-5555-3~-5~----|
A|-2-2-2222-5-5-5555-3-3-3333-44445555--2-2-2222-5-5-5555-3-3-3333-1~-3~----|
E|----------5-5-5555-3-3-3333-44445555-----------5-5-5555-3-3-3333-1~-3~----|

Verse:4x fast strum each chord *=12strums !=4 strums
E|--------------------------------------------------------------------------|
B|--------------------------------------------------------------------------|
G|-4*----7!--------9!-------------------------------------------------------|
D|-4*----7!--7*----9!-------------------------------------------------------|
A|-2*----5!--7*----7!-------------------------------------------------------|
E|-----------5*-------------------------------------------------------------|

Chorus: exactly same as intro but played a little faster

riff before 2nd verse
E|--------------------------------------------------------------------------|
B|--------------------66--2222223333444-------------------------------------|
G|-4~--33333333333355-------------------------------------------------------|
D|--------------------------------------------------------------------------|
A|--------------------------------------------------------------------------|
E|--------------------------------------------------------------------------|

Verse

Chorus

Bridge: use the chords given starting with ring out, progressing to palm mute
       and then finishing with strumming
E|--------------------------------------------------------------------------|
B|--------------------------------------------------------------------------|
G|--4--5--7--3--------------------------------------------------------------|
D|--4--5--7--3--------------------------------------------------------------|
A|--2--3--5--1--------------------------------------------------------------|
E|-----3--5--1--------------------------------------------------------------|

Chorus


| ~  vibrato/ring out

===============================================================================
Tap to rate this tab
# A B C D E F G H I J K L M N O P Q R S T U V W X Y Z