Song name
# A B C D E F G H I J K L M N O P Q R S T U V W X Y Z

Ninevolt - I Made This Up But Look At It Its Pretty Cool tab

 e ------------------------------------------------------------------------|
 B ------------------------------------------------------------------------|
 G ------------------------------------------------------------------------|
 D -----------------9----------------------9-------------------------------|
 A --9-9--4-5--7-7----9-----9-9--4-5--7-7----9-----------------------------|
 E ------------------------------------------------------------------------|


 e -----------------12-12---14----------------------12-12----14-------------|
 B ----------14-15-------------12------------14-15---------------12---------|
 G --11-11---------------------------11-11----------------------------------|
 D -------------------------------------------------------------------------|
 A -------------------------------------------------------------------------|
 E -------------------------------------------------------------------------|


 e -----------------------------------------------------------------|
 B -----------------------------------------------------------------|
 G -----------------------------------------------------------------|
 D ----9----------------------------9-------------------------------|
 A --9-----7-7----5-4----9-9------9------7-7--5-4--9-9--------------|
 E -----------------------------------------------------------------|


 e -----14--12-12-----------------------14-12-12---------------------------|
 B --12------------15-14-------------12-----------15-14--------------------|
 G -----------------------11-11--------------------------11-11-------------|
 D ------------------------------------------------------------------------|
 A ------------------------------------------------------------------------|
 E ------------------------------------------------------------------------|
Tap to rate this tab
# A B C D E F G H I J K L M N O P Q R S T U V W X Y Z