Song name
# A B C D E F G H I J K L M N O P Q R S T U V W X Y Z

Nini Rosso - Il Silenzio tab

-------------------------------------------------------------------------------
			     IL SILENZIO - Nini Rosso
-------------------------------------------------------------------------------
Tabbed by: Johannes Moosmeier
Email: jomochecker@gmx.de

http://de.wikipedia.org/wiki/Nini_Rosso

play it cantabile, it's a wonderful song! if you don't know it, just listen to it on 
there, you'll find a version of Nini Rosso's trumpet song.

e|------------------------|------------------------|12----------------------|
B|------------------------|13-------------------13-|------------------------|
G|------------------12----|-------------------12---|------------------------|
D|------------------------|------------------------|------------------------|
A|------------------------|------------------------|------------------------|
E|------------------------|------------------------|------------------------|

e|------------12----------|------------------------|------------------------|
B|13-------------------13-|------------------------|13-------------------13-|
G|------------------------|12----------------12----|------------------12----|
D|------------------------|------------------------|------------------------|
A|------------------------|------------------------|------------------------|
E|------------------------|------------------------|------------------------|

e|12----------12----------|12----------------------|--------12--13--12------|
B|---15-13-15----15-13-15-|------------------------|13--15------------15-13-|
G|------------------------|------------------------|------------------------|
D|------------------------|------------------------|------------------------|
A|------------------------|------------------------|------------------------|
E|------------------------|------------------------|------------------------|

e|------12-13-12----------|----------12------------|-------12----------12---|
B|15-------------15-------|12-13-15-------15-13-12-|13--15----15-13--15--15-|
G|------------------------|------------------------|------------------------|
D|------------------------|------------------------|------------------------|
A|------------------------|------------------------|------------------------|
E|------------------------|------------------------|------------------------|

e|------------------------|15--12------15--12------|------12-13-12----------|
B|13----------------------|--------13----------13--|15--------------15------|
G|------------------------|------------------------|------------------------|
D|------------------------|------------------------|------------------------|
A|------------------------|------------------------|------------------------|
E|------------------------|------------------------|------------------------|

e|13-----------13---------|-------12---------------|15--12------15--12------|
B|---15--12-------15--12--|13--15----15-13---------|--------13----------13--|
G|------------------------|------------------------|------------------------|
D|------------------------|------------------------|------------------------|
A|------------------------|------------------------|------------------------|
E|------------------------|------------------------|------------------------|

e|------12-13-12----------|13-----------13---------|-------12---------------|
B|15--------------15------|---15--12-------15--12--|13--15----15-13---------|
G|------------------------|------------------------|-------------------12---|
D|------------------------|------------------------|------------------------|
A|------------------------|------------------------|------------------------|
E|------------------------|------------------------|------------------------|

e|------------------------|12----------12----------|12----------------------|
B|13-------------------13-|---15-13-15----15-13-15-|------------------------|
G|------------------12----|------------------------|------------------------|
D|------------------------|------------------------|------------------------|
A|------------------------|------------------------|------------------------|
E|------------------------|------------------------|------------------------|

e|--------12--13--12------|------12-13-12----------|----------12------------|
B|13--15------------15-13-|15-------------15-------|12-13-15-------15-13-12-|
G|------------------------|------------------------|------------------------|
D|------------------------|------------------------|------------------------|
A|------------------------|------------------------|------------------------|
E|------------------------|------------------------|------------------------|

e|-------12----------12---|------------------------|------------------------|
B|13--15----15-13--15--15-|13----------------------|13-------------------13-|
G|------------------------|------------------12----|-------------------12---|
D|------------------------|------------------------|------------------------|
A|------------------------|------------------------|------------------------|
E|------------------------|------------------------|------------------------|

e|12----------------------|------------12----------|------------------------|
B|------------------------|13-------------------13-|------------------------|
G|------------------------|------------------------|12----------------12----|
D|------------------------|------------------------|------------------------|
A|------------------------|------------------------|------------------------|
E|------------------------|------------------------|------------------------|

e|------------------------|-----------------12-----|------------------------|
B|13----------------------|13--13-13-13--13--------|------------------------|
G|------------------------|------------------------|-------12--12-12-12--12-|
D|------------------------|------------------------|------------------------|
A|------------------------|------------------------|------------------------|
E|------------------------|------------------------|------------------------|

e|------------------------|------------------------||
B|13----------------------|------------------------||
G|------------------------|------------------------||
D|------------------------|------------------------||
A|------------------------|------------------------||
E|------------------------|------------------------||


===============================================================================
Tap to rate this tab
# A B C D E F G H I J K L M N O P Q R S T U V W X Y Z