Song name
# A B C D E F G H I J K L M N O P Q R S T U V W X Y Z

Ninja Sex Party - Manticore tab

-------------------------------------------------------------------------------
                             MANTICORE - Ninja Sex Party
-------------------------------------------------------------------------------
Tabbed by: Jérôme Guay
E-mail: ballasbasaure@gmail.com

Tuning: Standard (EADGBe)

e|----------------|-------------------------------------------------------------------|
B|----------------|-------------------------------------------------------------------|
G|----(Drums)---|---------------------------------------------------------------------|
D|----------------|---x\\\\\\\\\\\\\\\\-----------------------------------------------|
A|----------------|---x\\\\\\\\\\\\\\\\----x\\\\\\\\\\\\\\\\--------------------------|
E|----------------|---------------------x\\\\\\\\\\\\\\\\-----------------------------|

e|-----------------------------------------------------------------------------|
B|-----------------------------------------------------------------------------|
G|--------------------------------------------10-----9-------------------------|
D|-7----10----12-----8------7-----10-----8------7------------------------------|
A|-5-----8-----10-----6------5------8------------------------------------------|
E|-----------------------------------------------------------------------------|

e|-----------------------------------------------------------------------------|
B|-----------------------------------------------------------------------------|
G|-------------------------------------------------9---------------------------|
D|-7----10----12------8------5-----------------7-------------------------------|
A|-5-----8-----10------6------3------------------------------------------------|
E|-----------------------------------------------------------------------------|

e|------------------------------------------------------------------------------------|
B|------------------------------------------------------------------------------------|
G|------------------------------------------------------------------------------------|
D|-7-----5----------------------------------------------------------------------------|
A|-5-----3------8-------7------7------8-------5---------------------------------------|
E|---------------6-------5------5------6-------3--------------------------------------|

e|-----------------------------------------------------------------------------|
B|-----------------------------------------------------------------------------|
G|-----------------------------------------------------------------------------|
D|-7-----------------10-----------------12------------------8------------------|
A|-5------------------8------------------10------------------6-----------------|
E|-----------------------------------------------------------------------------|
|
|      (x4)                 (x4)                   (x4)                      (x4)
e|-17p13-----------------------------------------------------------------------|
B|---------15------17p13-------------15p11--------------17p13------------------|
G|---------------------------14-----------------12------------------14---------|
D|-----------------------------------------------------------------------------|
A|-----------------------------------------------------------------------------|
E|-----------------------------------------------------------------------------|

e|-----------------------------------------------------------------------------|
B|-----------------------------------------------------------------------------|
G|----------------------------------------10-----------------9-----------------|
D|-7-----------------10------------------8------------------7------------------|
A|-5------------------8--------------------------------------------------------|
E|-----------------------------------------------------------------------------|
|
|      (x4)                 (x4)                   (x4)                      (x3)
e|-17p13-----------------------------------------------------------------------|
B|---------15------17p13-------------15p11--------------14p11-----15~~~\-------|
G|---------------------------14-----------------12------------------12---------|
D|-----------------------------------------------------------------------------|
A|-----------------------------------------------------------------------------|
E|-----------------------------------------------------------------------------|

e|-----------------------------------------------------------------------------|
B|-----------------------------------------------------------------------------|
G|--------------------------------------------10-----9-------------------------|
D|-7----10----12-----8------7-----10-----8------7------------------------------|
A|-5-----8-----10-----6------5------8------------------------------------------|
E|-----------------------------------------------------------------------------|

e|-----------------------------------------------------------------------------|
B|-----------------------------------------------------------------------------|
G|-------------------------------------------------9---------------------------|
D|-7----10----12------8------5-----------------7-------------------------------|
A|-5-----8-----10------6------3------------------------------------------------|
E|-----------------------------------------------------------------------------|

e|-----------------------------------------------------------------------------|
B|--------------------------------------------------------------------15-------|
G|-----------------------------------------------------------------------------|
D|-7-----5---------------------------------------------------------------------|
A|-5-----3------8-------7------7------8-------5--------------------------------|
E|---------------6-------5------5------6-------3-------------------------------|
|
|
e|-----------------------------------------------------------------------------|
B|-----------------------------------------------------------------------------|
G|--------------------------------------------------------------------14-------|
D|-7-----5---------------------------------------------------------------------|
A|-5-----3------8-------7------7------8-------5--------------------------------|
E|---------------6-------5------5------6-------3-------------------------------|

Piano Break

e|----------------|-------------------------------------------------------------------|
B|----------------|-------------------------------------------------------------------|
G|----(Drums)---|---------------------------------------------------------------------|
D|----------------|---x\\\\\\\\\\\\\\\\-----------------------------------------------|
A|----------------|---x\\\\\\\\\\\\\\\\----x\\\\\\\\\\\\\\\\--------------------------|
E|----------------|---------------------x\\\\\\\\\\\\\\\\-----------------------------|

e|-----------------------------------------------------------------------------|
B|-----------------------------------------------------------------------------|
G|--------------------------------------------10-----9-------------------------|
D|-7----10----12-----8------7-----10-----8------7------------------------------|
A|-5-----8-----10-----6------5------8------------------------------------------|
E|-----------------------------------------------------------------------------|

e|-----------------------------------------------------------------------------|
B|-----------------------------------------------------------------------------|
G|-------------------------------------------------9---------------------------|
D|-7----10----12------8------5-----------------7-------------------------------|
A|-5-----8-----10------6------3------------------------------------------------|
E|-----------------------------------------------------------------------------|


Solo

       (x4)                (x4)             (x4)             (x4)
e|-t17p13p10--t18p13p10--------------------------------------------------------|
B|-------------------------------t17p13p10--t18p13p10--------------------------|
G|-----------------------------------------------------------------------------|
D|-----------------------------------------------------------------------------|
A|-----------------------------------------------------------------------------|
E|-----------------------------------------------------------------------------|

         (x8)                           (x8)
e|-----------------------------------------------------------------------------|
B|-t15p11p8--------------t14p11p8----------------------------------------------|
G|-----------------------------------------------------------------------------|
D|-----------------------------------------------------------------------------|
A|-----------------------------------------------------------------------------|
E|-----------------------------------------------------------------------------|

       (x4)                (x4)             (x4)             (x4)
e|-t17p13p10--t18p13p10--------------------------------------------------------|
B|-------------------------------t17p13p10--t18p13p10--------------------------|
G|-----------------------------------------------------------------------------|
D|-----------------------------------------------------------------------------|
A|-----------------------------------------------------------------------------|
E|-----------------------------------------------------------------------------|

         (x8)                           (x8)
e|-----------------------------------------------------------------------------|
B|-t15p11p8--------------t14p11p8----------------------------------------------|
G|-----------------------------------------------------------------------------|
D|-----------------------------------------------------------------7-----------|
A|-----------------------------------------------------------------5-----------|
E|-----------------------------------------------------------------------------|
Tap to rate this tab
 
# A B C D E F G H I J K L M N O P Q R S T U V W X Y Z