Song name
# A B C D E F G H I J K L M N O P Q R S T U V W X Y Z

Ninja Sex Party - Unicorn Wizard tab

-------------------------------------------------------------------------------
                             UNICORN WIZARD - Ninja Sex Party
-------------------------------------------------------------------------------
Tabbed by: Jérôme Guay
E-mail: ballasbasaure@gmail.com

Tuning: Standard (EADGBe)

e|------(x3)---------|-------------------------------------------------------------|
B|--------------------|------------------------------------------------------------|
G|*-----------------*|-------------------------------------------------------------|
D|*-5--3-------3--*|---------------------------------------------------------------|
A|-3--1--3----1----|-----5~~---------------------------------------55--------------|
E|--------1----------|-----3~~---------------------------------------33------------|
 PM                                                                                     · ·

e|-------------------------------------------------------------------------------|
B|-------------------------------------------------------------------------------| (x3)
G|*------------------------------------------------------------------------------|
D|*-----------------------------1-3-3-1---------------------------------1-3-3-1--|
A|-3-1---1-------1-3---1-3------------3---3-1---1-------1-3---1-3----------------|
E|------3-------3----------------------------------3-------3---------------------|

e|-----------------------------------------------------------------------------------|
B|-----------------------------------------------------------------------------------|
G|-----------------------------------------------------------------------------------|
D|-3-(3)---------------------------------3-3-----------------------------------------|
A|-1-(1)---------------------------------1-1-----------------------------------------|
E|-----------------------------------------------------------------------------------|

e|-------------------------------------------------------------------------------|
B|-------------------------------------------------------------------------------|
G|-------------------------------------------------------------------------------|
D|------------------------------1-3-3-1---------------------------------1-3-3-1--|
A|-3-1---1-------1-3---1-3------------3---3-1---1-------1-3---1-3----------------|
E|------3-------3----------------------------------3-------3---------------------|

e|-----------------------------------------------------------------------------|
B|-----------------------------------------------------------------------------|
G|-----------------------------------------------------------------------------|
D|-----------3-(3)-3--5-(5)----------------------------------------------------|
A|-5-(5)-5--1-(1)-1--3-(3)-----------------------------------------------------|
E|-3-(3)-3---------------------------------------------------------------------|

e|-----------------------------------------------------------------------------|
B|-----------------------------------------------------------------------------|
G|*----------------------------------------------------------------------------|
D|*-555-3---333-3355-5---------------------------------------------------------|
A|--333-1---111-1133-3--33333333-55555555--------------------------------------|
E|-----------------------------11111111-33333333-------------------------------|

e|------------------------------------------------------------------------------|
B|------------------------------------------------------------------------------|
G|------------------------------------------------------------------------------|
D|-555-3---333-3355-5-----------------------------------------------------------|
A|-333-1---111-1133-3-66666666666666-88-----------------------------------------|
E|---------------------------44444444444444-66----------------------------------|

e|-----------------------------------------------------------------------------|
B|-----------------------------------------------------------------------------|
G|-----------------------------------------------------------------------------|
D|-----------------------------1-3-3-1-----------------------------------------|
A|-3-1---1-------1-3---1-3------------3---3-1---1-------1-3--------------------|
E|------3-------3----------------------------------3-------3-------------------|

e|-------------------------------------------------------------------------------|
B|-------------------------------------------------------------------------------|
G|*------------------------------------------------------------------------------|
D|*-----------------------------1-3-3-1---------------------------------1-3-3-1--|
A|-3-1---1-------1-3---1-3------------3---3-1---1-------1-3---1-3----------------|
E|------3-------3----------------------------------3-------3---------------------|

e|-----------------------------------------------------------------------------|
B|-----------------------------------------------------------------------------|
G|-----------------------------------------------------------------------------|
D|-3-(3)---------------------------------3-3-----------------------------------|
A|-1-(1)---------------------------------1-1-----------------------------------|
E|-----------------------------------------------------------------------------|

e|-------------------------------------------------------------------------------|
B|-------------------------------------------------------------------------------|
G|*------------------------------------------------------------------------------|
D|*-----------------------------1-3-3-1---------------------------------1-3-3-1--|
A|--3-1---1-------1-3---1-3------------3---3-1---1-------1-3---1-3---------------|
E|-------3-------3----------------------------------3-------3--------------------|

e|-----------------------------------------------------------------------------|
B|-----------------------------------------------------------------------------|
G|-----------------------------------------------------------------------------|
D|-----------3-(3)-3--5-(5)----------------------------------------------------|
A|-5-(5)-5--1-(1)-1--3-(3)-----------------------------------------------------|
E|-3-(3)-3---------------------------------------------------------------------|

el-----------------------------------------------------------------------------|
B|-----------------------------------------------------------------------------|
G|*----------------------------------------------------------------------------|
D|*-555-3---333-3355-5---------------------------------------------------------|
A|--333-1---111-1133-3--33333333-55555555--------------------------------------|
E|-----------------------------11111111-33333333-------------------------------|

e|------------------------------------------------------------------------------|
B|------------------------------------------------------------------------------|
G|------------------------------------------------------------------------------|
D|-555-3---333-3355-5-----------------------------------------------------------|
A|-333-1---111-1133-3-66666666666666-88-----------------------------------------|
E|---------------------------44444444444444-66----------------------------------|

Piano Break

e|-----------------------------------------------------------------------------|
B|-----------------------------------------------------------------------------|
G|-----------------------------------------------------------------------------|
D|-10~~-----------------------------------------10\----------------------------|
A|-10~~-----------------------------------------10\----------------------------|
E|--8~~-------------------------------------------8\---------------------------|
Tap to rate this tab
 
# A B C D E F G H I J K L M N O P Q R S T U V W X Y Z