Song name
# A B C D E F G H I J K L M N O P Q R S T U V W X Y Z

Nino Manfredi - Roma Nun Fa La Stupida tab

Roma nun fa' la stupida stasera.tab smox88

e-------------------------------------------------------------------------------------|
b------------------9-9--7-7--5---7-7-7-7--5-4-2-5-2-2--4-4-4-2-4-2-2---8-8-8-8-6-8-6--|
g--5-5-5-5-5--7-----------------------------------------------------------------------|
d-------------------------------------------------------------------------------------|
a-------------------------------------------------------------------------------------|
E-------------------------------------------------------------------------------------|

e----------------------------------------------------------------------------------------|
b--6--11--9-9-8-8-6--6-4-6-8-------------------9-9--7-7-5---5-5-5--7-7--9-9--9-10-12-14--|
g-----------------------------------5-5-5-5-5--7-----------------------------------------|
d----------------------------------------------------------------------------------------|
a----------------------------------------------------------------------------------------|
E----------------------------------------------------------------------------------------|

e-------------------------------------------------------------------|
b14-12-14-12--5-9-7--10-9-10-9--7-9-7-5---2-2-2-2-2--4-4-4--7-7--5--|
g-------------------------------------------------------------------|
d-------------------------------------------------------------------|
a-------------------------------------------------------------------|
E-------------------------------------------------------------------|

smox88                                                            smox88
Tap to rate this tab
# A B C D E F G H I J K L M N O P Q R S T U V W X Y Z