Song name
# A B C D E F G H I J K L M N O P Q R S T U V W X Y Z

Nino Rota - What Is A Youth tab

I really like this song, especially the beginning, so i tried to tab it!
Actually it's the first song i've ever tabed so i only did the first part yet!
Please feel free to comment!

-6--9--8-------------6-----6-------------------------------------6--9--8----|
---------6---6--9--6---------9--7--9---9--7--6---------------------------6--|
-----------------------------------------------8----10-8-6-8--10------------|
----------------------------------------------------------------------------|
----------------------------------------------------------------------------|
----------------------------------------------------------------------------|

-----------6----6--11----8----6-9---8-6-4-9-8-6-4--6----------------------|
---6--9--6----------------------------------------------------------------|
--------------------------------------------------------------------------|
--------------------------------------------------------------------------|
--------------------------------------------------------------------------|
--------------------------------------------------------------------------|
Tap to rate this tab
# A B C D E F G H I J K L M N O P Q R S T U V W X Y Z