Song name
# A B C D E F G H I J K L M N O P Q R S T U V W X Y Z

Nino Rota - Speak Softly Love tab

AHMAD CHAIBAN MADE THIS (ac002)!!


E||--0-5-8-7-5-8-5-7-5-0-|1-3-0~~---0-5-8-7-5-8-|5-0--------1-5-7~~----|
B||----------------------|----------------------|----4-3~~-3-----------|
G||----------------------|----------------------|----------------------|
D||----------------------|----------------------|----------------------|
A||----------------------|----------------------|----------------------|
E||----------------------|----------------------|----------------------|

E||---0-4-5~~------------|
B||-1--------------------|
G||----------------------|
D||----------------------|
A||----------------------|
E||----------------------|

E||----3-1-0-3-1-1-0-0---|------5-4-3~---7-3-1-0|~~--0-3-0--------1---0|
B||--1-------------------|----------------------|----------3~~--3---4--|
G||-2------------------1-|2~~-------------------|----------------------|
D||----------------------|----------------------|----------------------|
A||----------------------|----------------------|----------------------|
E||----------------------|----------------------|----------------------|
Tap to rate this tab
# A B C D E F G H I J K L M N O P Q R S T U V W X Y Z