Song name
# A B C D E F G H I J K L M N O P Q R S T U V W X Y Z

Nino Rota - A Time For Us tab

A Time for Us - The Theme from Romeo and Juliet
By Nino Rota
Tuning: Standard
Time signature is 3/4

I know it says "intro" but it's practically like this for a majority of the song (I 
think there's a little bit in the middle but idk).

e|--8--11--10--|-----|-----6-----|--8--|--8--6-----|--6--|--6--------|--6----|
B|-------------|--8--|--8-----8--|--8--|--------9--|--6--|-----9--8--|--5----|
G|-------------|--7--|-----------|--8--|-----------|-----|-----------|-------|
D|-------------|-----|-----------|-----|-----------|-----|-----------|-------|
A|-------------|-----|-----------|-----|-----------|-----|-----------|-------|
E|-------------|-----|-----------|-----|-----------|-----|-----------|-------|

e|--------------|-----|------------------------------------------------------|
B|--8--6-----6--|--6--|------------------------------------------------------|
G|--------8-----|--7--|------------------------------------------------------|
D|--------------|-----|------------------------------------------------------|
A|--------------|-----|------------------------------------------------------|
E|--------------|-----|------------------------------------------------------|

My first tab and arrangement btw :)
Also this can be played on Uke - your starting note is the C on the A string (3rd fret) 
and it's exactly the same tab :)

A Time For Us (the Theme from Romeo and Juliet)
Composed by Nino Rota
Arranged by Chloe Riley
Tap to rate this tab
 
# A B C D E F G H I J K L M N O P Q R S T U V W X Y Z