Song name
# A B C D E F G H I J K L M N O P Q R S T U V W X Y Z

Nirgilis - Sakura tab

SORRY IF THIS IS A LITTLE OFF BUT I TRIED

GAELAN O'NEILL

IF ANYONE CAN MAKE IT DEAD PLEASE HELP! I LOVE THIS SONG AND WANT TO LEARN TO 
ACTUALLY PLAY 100% CORRECT! 

gaelanisdabomb@hotmail.com

VERSES

E------------------------------------|
B------------------------------------|
G-7-7-7-77-6-6-6-66-7-7-7-77-7-7-7-77|
D-7-7-7-77-7-7-7-77-7-7-7-77-7-7-7-77|
A-5-5-5-55-5-5-5-55-X-X-X-XX-5-5-5-55|
E-------------------7-7-7-77-5-5-5-55|

CHORUS

E--------------------------------------------|
B--------------------------------------------| 
G-7777777777-6666666666-7777777777-7777777777|
D-7777777777-7777777777-7777777777-7777777777|
A-5555555555-5555555555-XXXXXXXXXX-XXXXXXXXXX|
E-----------------------7777777777-5555555555|

E------------------------------------|
B-11-11-11-12-12-12-14-14-14-12-12-12| X2
G------------------------------------|
D------------------------------------|
A------------------------------------|
E------------------------------------|

REPEAT ALL AS NEEDED
Tap to rate this tab
# A B C D E F G H I J K L M N O P Q R S T U V W X Y Z