Song name
# A B C D E F G H I J K L M N O P Q R S T U V W X Y Z

Nirvana - Laminated Effect tab

Help us improve GuitareTab! Take a short survey!
This is Laminated Effect from the Fecal Matter demo tape.
I decided to make this after not being able to find tabs for the longest time.
This may not be completely right (in fact I'm pretty sure it's not) but it's the best
I could come up with so far.

just remember to put the guitar in dropped d (bottom string down 2 steps)
and play really messy! maybe only use one finger? any how, enjoy


verse

e|-------------------------------|
b|-------------------------------|
g|-------------------------------|
d|-2--11-11----5-7-5-7-5-4-6-4-3-|
a|-2--11-11----5-7-5-7-5-4-6-4-3-| repeat a few times
d|-2--11-11----5-7-5-7-5-4-6-4-3-|

chorus
            e|-----------------------------|
            b|-----------------------------|
            g|-----------------------------|
            d|-5-5-5-5--9-11-11-10-10------|
            a|-5-5-5-5--9-11-11-10-10------|repeat a few times
            d|-5-5-5-5--9-11-11-10-10------|


then play this to end the chorus and go back to the main riff
(not so sure about this part)
e|---------------------------------|
b|---------------------------------|
g|---------------------------------|
d|-5-5-5-5-4-4-4-4---2-2-2-2-2-2-2-|
a|-5-5-5-5-4-4-4-4---2-2-2-2-2-2-2-|
d|-5-5-5-5-4-4-4-4---2-2-2-2-2-2-2-|
Related for Laminated Effect tab