Guitaretab - guitar tabs
Song name
# A B C D E F G H I J K L M N O P Q R S T U V W X Y Z

Nirvana - Very Ape Acoustic tab

-------------------------------------------------------------------------------
			     VERY APE acoustic - Kurt Cobain
-------------------------------------------------------------------------------
Tabbed by: leech3


Standard Tuning.
This version is quite different from album version so i thought i'll add it. Pretty 
very rough early version of the song.

I didn't bother to make a structure, some bits of the bridge are used in the verses and 
main riff is used right before chorus.

Verses
e-----------------------------------------------------------------------|
b-----------------------------------------------------------------------|
g-----------------------------------------------------------------------|
d----5/7-7-X---5/8-8-X--------------------------------------------------|
a----5/7-7-X---5/8-8-X--------------------------------------------------|
e----3/5-5-X---3/6-6-X--------------------------------------------------|

Bridge part
    d  d dud du
e------------------------------------------------------------------------|
b------------------------------------------------------------------------|
g------------------------------------------------------------------------|
d---5--5-555-5-0-3--3-333-3-0--------------------------------------------|
a---5--5-555-5-0-3--3-333-3-0--------------------------------------------|
e---3--3-333-3-0-1--1-111-1-0--------------------------------------------|
[ Tab from: http://www.guitaretab.com/n/nirvana/116820.html ]
e------------------------------------------------------------------------|
b------------------------------------------------------------------------|
g------------------------------------------------------------------------|
d---5--5-555-5-0-3--3-333-3-0--------------------------------------------|
a---5--5-555-5-0-3--3-333-3-0--------------------------------------------|
e---3--3-333-3-0-1--1-111-1-0--------------------------------------------|

e-----------------------------------------------------------------|
b-----------------------------------------------------------------|
g-----------------------------------------------------------------|
d---3--3-333-3-0--2-2-2--8-8-8------------------------------------|
a---3--3-333-3-0--2-2-2--8-8-8------------------------------------|
e---1--1-111-1-0--0-0-0--6-6-6------------------------------------|

e------------------------------------------------------------------------|
b------------------------------------------------------------------------|
g------------------------------------------------------------------------|
d---5--5-555-5-0-3--3-3-8-8-8--------------------------------------------|
a---5--5-555-5-0-3--3-3-8-8-8--------------------------------------------|
e---3--3-333-3-0-1--1-1-6-6-6--------------------------------------------|

CHORUS

e------------------------------------------------------------------------|
b------------------------------------------------------------------------|
g-----------5-7--7-5-----------------------------------------------------| x1
d---7--7----5-7--7-5---7--7-7770-----------------------------------------|
a---7--7----3-5--5-3---7--7-7770-----------------------------------------|
e---5--5---------------5--5-5550-----------------------------------------|


e-------------------------------------------------------------------------|
b-------------------------------------------------------------------------|
g------------5-5--7-8--8-7------------------------------------------------|
d---7--7-8---5-5--7-8--8-7----5-5-5-6-------------------------------------|
a---7--7-8---3-3--5-6--6-5----5-5-5-6-------------------------------------|
e---5--5-6--------------------3-3-3-4-------------------------------------|
sham dadadum....


Thanks for playing this.
Related for Very Ape Acoustic tab
Advertisement will be closed in 10 seconds