Song name
# A B C D E F G H I J K L M N O P Q R S T U V W X Y Z

Nirvana - Floyd The Barber tab

---------------------------------------------------------------------
			     Floyd The Barber - Nirvana
---------------------------------------------------------------------

Album: Bleach
Tabbed by: Greg
Email: punch_the_baby@hotmail.com

Tuning: Standard


Verse x16:

e|-------------------------|
B|-------------------------|
G|-------------------------|
D|--3--3----2--2--2--------|
A|--3--3----2--2--2--------|
E|--1--1----0--0--0--------|


Chorus x4:

e|-----------------------------------|
B|-----------------------------------|
G|--5--5------------4--4-------------|
D|--5--5----6--6----4--4----6--6-----|
A|--3--3----6--6----2--2----6--6-----|
E|----------4--4------------4--4-----|


Verse x12


Chorus x4


Solo:

e|--------------------------------------------|
B|--------------------------------------------|
G|--------------------------------------------|    x3
D|--------------------------------------------|
A|-----------------0--1--3--3--1--0--1--3-----|
E|--1--1--0--1--3-----------------------------|

e|-------------------------------------------------|
B|--------------------------------------------1----|
G|-----------------------------------0--2--3-------|
D|--------------------------0--2--3----------------|    x1
A|-----------------0--1--3-------------------------|
E|--1--1--0--1--3----------------------------------|


Verse x12


Chorus x4


Verse x1
Tap to rate this tab
# A B C D E F G H I J K L M N O P Q R S T U V W X Y Z