Song name
# A B C D E F G H I J K L M N O P Q R S T U V W X Y Z

Nirvana - Heart Shaped Box tab

Song - Heart Shaped Box
Band - Nirvana

Tabbed By Yankovicfan3125
Email - Yankovicfan3125@Aim.com

Here's the solo that many people have been looking for, the alternate solo to Heart 
Box, as seen in Guitar Hero 2.
I'm sorry, it's not in Drop D, I use STANDARD.
Have fun playing this, it's way more fun to add on the alternate section when playing 
Shaped Box.
I've broken it up into pieces so it's easier to learn and read.
Please comment after playing my tab, it's my first one!

\ Slide Down
/ Slide Up
h Hammer-on
p Pull-off
b bend
r release bend

*Note: When you see 11b13b13 that means Hold Bend

---------------------------------------------------------------------|
--------8b10r8\-------7b9r7\-------5b6--5-3-1-0----------------------|
---------------------------------------------------------------------|
---7-7-----------6-6----------3-3------------------------------------|
---------------------------------------------------------------------|
---------------------------------------------------------------------|

---------------------------------------------------------------------|
--------8b10r8\-------7b9r7\-------5b6--5-3-1-0----------------------|
---------------------------------------------------------------------|
---7-7-----------6-6----------3-3------------------------------------|
------------------------------------------------------8b10\0---------|
---------------------------------------------------------------------|

---------------------------------------------------------------------|
---------------------------------------------------------------------|
---------------------------------------------------------------------|
---6-8-9-11-11b13-11-9-8-8b9-8b9r8-6-----6-8-6-----------------------|
--------------------------------------9---------------8b10\0/--------|
-------------------------------------------------------------4-------|

---------------------------------------------------------------------|
---------------------------------------------------------------------|
------------------11--------11-------11b13-------11b13b13-11b13r11---|
---6-8-9-11-11b13----11b13-----11b12-------11b12---------------------|
---------------------------------------------------------------------|
---------------------------------------------------------------------|

---------------------------------------------------------------------|
---------------------------------------------------------------------|
---------------------------------------------------------------------|
---11-9-6-9b10-6-4b6r4---6b8r6-4---6---------------------------------|
-----------------------6---------6-6---------------------------------|
-----------------------------------4---------------------------------|

Please Comment!!!!
Tap to rate this tab
# A B C D E F G H I J K L M N O P Q R S T U V W X Y Z