Guitaretab - guitar tabs
Song name
# A B C D E F G H I J K L M N O P Q R S T U V W X Y Z

Nirvana - I Hate Myself tab

-------------------------------------------------------------------------------
			     I Hate Myself - 88 Fingers Louie
-------------------------------------------------------------------------------
Tabbed by: Horror_chimp
Email: Horror_chimp@hotmail.co.uk

Tuning: standard

Verse
e|----------------------------------------------------------------------------------|
B|----------------------------------------------------------------------------------|
G|-----5-----5-------5--------------------------------------------------------------|
D|--7--5--3--5----7--5--5--3--------------------------------------------------------|
A|--7--3--3--3----7--3--5--3--------------------------------------------------------|
E|--5-----1-------5-----3--1--------------------------------------------------------|
[ Tab from: http://www.guitaretab.com/n/nirvana/13393.html ]
Chorus
e|--------------------------------------------------------------------------------|
B|--------------------------------------------------------------------------------|
G|--5--7--10----------------------------------------------------------------------|
D|--5--7--10----------------------------------------------------------------------|
A|--3--5--8-----------------------------------------------------------------------|
E|--------------------------------------------------------------------------------|

The bit before the solo (bridge or w.e) is just the verse palm muted once

Solo
e|-----------|---------------------------------------------|---------------------------------|
B|-----------|---------------------------------------------|---------------------------------|
G|-----9-7-5-|----------------------------------5-7-5------|---------------------------------|
D|--7~-------|-5h7-5h7-5h7-----5---5h7-5h7-5h7----------x2-|-5h7-5h7-5h7------5--7-5---7-5---|
A|-----------|-------------5-7-----------------------------|--------------5-7--------7-----7-|
E|-----------|---------------------------------------------|---------------------------------|

thats the best i could do with the solo i think the last bit is wrong but sounds close 
...... tell mee if you come with something better!!:)

| /  slide up
| \  slide down
| h  hammer-on
| p  pull-off
| ~  vibrato
| +  harmonic
| x  Mute note
===============================================================================
Related for I Hate Myself tab
Advertisement will be closed in 10 seconds