Guitaretab - guitar tabs
Song name
# A B C D E F G H I J K L M N O P Q R S T U V W X Y Z

Nirvana - I Hate Myself tab

I Hate Myself And I Want To Die

By NIRVANA!


You must detune your guitar down a whole step with dropped D tuning or the 

hammer of untunefulness shall fall upon you when you play along with the 

recording. 



The |s represent barlines, and the /s represent slides.



MAIN RIFF.

  1&2&3&4& 1&2&3&4&

Eb---------|--------

Bb---------|--------

Gb-5-5-----|5-5-----

Db-5-5-2212|3-3-2210

Ab-3-3-2212|3-3-2210

Db-----2212|----2210



CHORUS.

   1&2&3&4&

Eb---------|

Bb---------|

Gb-----3333|

Db-5-5-3333|

Ab-5-5-1111|

Db-5-5-----|



SOLO.

  1&2&3&4& 1&2&3&4& 1&2&3&4& 1&2&3&4& 1&2&3&4& 1&2&3&4&

Eb--------|--------|--------|--------|--------|--------|--------|

Bb--------|--------|--------|--------|--------|--------|--------|

Gb--------|--0-----|--------|--------|--------|--------|--------|

Db--------|0---4-3-|2-------|--------|--3202--|--------|--------|

Ab----2-3-|--------|--------|--------|--------|1-0-----|--------|

Db-/5-----|--------|--------|--------|--------|----5-3-|2-------|





From: YBPC@aol.com

Nirvana's "I Hate Myself And I Want To Die"

As heard on The Beavis & Butthead Experience

Tabbed by Ben Wampler

Kurdt tunes his guitar dropped-D (drop the D string two frets)

It is not that hard to play once you get the hang of it! Its mainly just
simple Barr chords (some modified a bit)

The lyrics were unintelligable, so I tried my best. If you perform this in
concert, and get laughed at because you sang the wrong lyrics, its not my
fault!

Thanks some to the aiden of grunge!

The |s represent barlines, and the /s represent slides.



--------------------------------------
-5-5-4-4------------------------------
-5-5-4-4-3-2--------------------------
-5-5-4-4-3-2--------------------------
-3-3-2-2-3-2--------------------------
-3-3-2-2-1-0--------------------------


(Verse 1)
Runnin doesn't bother you
Yell out if youi have a cold still
You can cough on me again
I still haven't had my fare-fill

(Verse 2) REAL SCREWED UP!
??
The plaster disaster is hard still  (?)
just another cooky blue-jay fraze (?)
?? to tie you over (?)


CHORUS.

   1&2&3&4&

-3-3--1--------------------------------
-3-3--1--------------------------------
-4-4--2--------------------------------
-5-5--3--------------------------------
-5-5--3--------------------------------
-3-3--1--------------------------------

>I really couldn't figure this out, one of these, maybe

In a sinewave, whats this high-sound

In the side wave, whats this hard sound

Every Sunday, whats that hard sound

Suicidal, to this hard sound


SOLO.

--------|--------|--------|--------|--------|--------|--------|
--------|--------|--------|--------|--------|--------|--------|
--------|--0-----|--------|--------|--------|--------|--------|
--------|0---4-3-|2-------|--------|--3202--|--------|--------|
----2-3-|--------|--------|--------|--------|1-0-----|--------|
-/5-----|--------|--------|--------|--------|----5-3-|2-------|


Thats all i figure out...


Transcribed by sir Aidan of grunge
[ Tab from: http://www.guitaretab.com/n/nirvana/13394.html ]
Related for I Hate Myself tab
Advertisement will be closed in 10 seconds