Song name
# A B C D E F G H I J K L M N O P Q R S T U V W X Y Z

Nirvana - Mollys Lips tab

Ok this is a really easy song, the same the whole way through. 
Just get used to it, and it is like the easiest song ever.

I have tabbed both the guitar and the bass guitar, 
so get the timing and everything to match, and
you can perform this after memorizing the easy lyrics.

Please rate, post comments and enjoy playing! :)

Song:   Molly's Lips
Artist: Nirvana
Album:  Insecticide

Members:
Kurt Cobain (1967-1994): Vocals & Guitar
Krist Novoselic: Bass Guitar (& Vocals)
Dave Grohl: Drums (& Vocals)

May Kurt Cobain rest in peace.

To play this song completely:
1 x Electric Guitar
1 x Bass Guitar
1 x Drums

Electric Guitar: Distortion On.

Tuning: The tuning is standard. If not, the tuning should be 1/2 a step down, because 
Nirvana songs were tuned that way around that time.


Intro:

Electric Guitar:

e|--------------------------------------------------|
B|--------------------------------------------------|
G|---------------5--5--5-----------------5--5--5----|
D|--5----5--0----5--5--5----5----5--0----5--5--5----|
A|--5----5--0----3--3--3----5----5--0----3--3--3----|
E|--3----3--0---------------3----3--0---------------|

e|--------------------------------------------------|
B|--------------------------------------------------|
G|---------------5--5--5-----------------5--5--5--0-|
D|--5----5--0----5--5--5----5----5--0----5--5--5--0-|
A|--5----5--0----3--3--3----5----5--0----3--3--3--0-|
E|--3----3--0---------------3----3--0---------------|

e|--------------------------------------------------|
B|--------------------------------------------------|
G|---------------5--5--5-----------------5--5--5----|
D|--5----5--0----5--5--5----5----5--0----5--5--5----|
A|--5----5--0----3--3--3----5----5--0----3--3--3----|
E|--3----3--0---------------3----3--0---------------|

e|--------------------------------------------------|
B|--------------------------------------------------|
G|---------------5--5--5-----------------5--5--5--0-|
D|--5----5--0----5--5--5----5----5--0----5--5--5--0-|
A|--5----5--0----3--3--3----5----5--0----3--3--3--0-|
E|--3----3--0---------------3----3--0---------------|

Bass Guitar:

|--------------------------------------------|
|--------------------------------------------|
|------------3--3--3-----------3--3--3-------|
|---3--3--3-----------3--3--3----------------|

|--------------------------------------------|
|--------------------------------------------|
|------------3--3--3-----------3--3--3--3----|
|---3--3--3-----------3--3--3----------------|

|--------------------------------------------|
|--------------------------------------------|
|------------3--3--3-----------3--3--3-------|
|---3--3--3-----------3--3--3----------------|

|--------------------------------------------|
|--------------------------------------------|
|------------3--3--3-----------3--3--3--3----|
|---3--3--3-----------3--3--3----------------|


Verse 1:

Electric Guitar:

e|--------------------------------------------------|
B|--------------------------------------------------|
G|---------------5--5--5-----------------5--5--5----|
D|--5----5--0----5--5--5----5----5--0----5--5--5----|
A|--5----5--0----3--3--3----5----5--0----3--3--3----|
E|--3----3--0---------------3----3--0---------------|
    She said, she'd take me anywhere, she'd take

e|--------------------------------------------------|
B|--------------------------------------------------|
G|---------------5--5--5-----------------5--5--5--0-|
D|--5----5--0----5--5--5----5----5--0----5--5--5--0-|
A|--5----5--0----3--3--3----5----5--0----3--3--3--0-|
E|--3----3--0---------------3----3--0---------------|
    me anywhere, as long as she stays with me.

e|--------------------------------------------------|
B|--------------------------------------------------|
G|---------------5--5--5-----------------5--5--5----|
D|--5----5--0----5--5--5----5----5--0----5--5--5----|
A|--5----5--0----3--3--3----5----5--0----3--3--3----|
E|--3----3--0---------------3----3--0---------------|
    She said, she'd take me anywhere, she'd take

e|--------------------------------------------------|
B|--------------------------------------------------|
G|---------------5--5--5-----------------5--5--5--0-|
D|--5----5--0----5--5--5----5----5--0----5--5--5--0-|
A|--5----5--0----3--3--3----5----5--0----3--3--3--0-|
E|--3----3--0---------------3----3--0---------------|
    me anywhere, as long as I stay clean.


Bass Guitar:

G|--------------------------------------------|
D|--------------------------------------------|
A|------------3--3--3-----------3--3--3-------|
E|---3--3--3-----------3--3--3----------------|
She said, she'd take me anywhere, she'd take me

G|--------------------------------------------|
D|--------------------------------------------|
A|------------3--3--3-----------3--3--3--3----|
E|---3--3--3-----------3--3--3----------------|
    anywhere, as long as she stays with me.

G|--------------------------------------------|
D|--------------------------------------------|
A|------------3--3--3-----------3--3--3-------|
E|---3--3--3-----------3--3--3----------------|
She said, she'd take me anywhere, she'd take me

G|--------------------------------------------|
D|--------------------------------------------|
A|------------3--3--3-----------3--3--3--3----|
E|---3--3--3-----------3--3--3----------------|
anywhere, as long as I stay clean.


Main Chorus:

Electric Guitar:

e|--------------------------------------------------|
B|--------------------------------------------------|
G|---------------5--5--5-----------------5--5--5--0-|
D|--5----5--0----5--5--5----5----5--0----5--5--5--0-|
A|--5----5--0----3--3--3----5----5--0----3--3--3--0-|
E|--3----3--0---------------3----3--0---------------|
    Kiss,        kiss       Molly's      Lips.

e|--------------------------------------------------|
B|--------------------------------------------------|
G|---------------5--5--5-----------------5--5--5--0-|
D|--5----5--0----5--5--5----5----5--0----5--5--5--0-|
A|--5----5--0----3--3--3----5----5--0----3--3--3--0-|
E|--3----3--0---------------3----3--0---------------|
    Kiss,        kiss       Molly's      Lips.

e|--------------------------------------------------|
B|--------------------------------------------------|
G|---------------5--5--5-----------------5--5--5--0-|
D|--5----5--0----5--5--5----5----5--0----5--5--5--0-|
A|--5----5--0----3--3--3----5----5--0----3--3--3--0-|
E|--3----3--0---------------3----3--0---------------|
    Kiss,        kiss       Molly's      Lips.

e|--------------------------------------------------|
B|--------------------------------------------------|
G|---------------5--5--5-----------------5--5--5--0-|
D|--5----5--0----5--5--5----5----5--0----5--5--5--0-|
A|--5----5--0----3--3--3----5----5--0----3--3--3--0-|
E|--3----3--0---------------3----3--0---------------|
    Kiss,        kiss       Molly's      Lips.


Bass Guitar:

G|--------------------------------------------|
D|--------------------------------------------|
A|------------3--3--3-----------3--3--3-------|
E|---3--3--3-----------3--3--3----------------|
     Kiss,    kiss     Molly's  Lips.

G|--------------------------------------------|
D|--------------------------------------------|
A|------------3--3--3-----------3--3--3--3----|
E|---3--3--3-----------3--3--3----------------|
     Kiss,    kiss     Molly's  Lips.

G|--------------------------------------------|
D|--------------------------------------------|
A|------------3--3--3-----------3--3--3-------|
E|---3--3--3-----------3--3--3----------------|
     Kiss,    kiss     Molly's  Lips.

G|--------------------------------------------|
D|--------------------------------------------|
A|------------3--3--3-----------3--3--3--3----|
E|---3--3--3-----------3--3--3----------------|
     Kiss,    kiss     Molly's  Lips.


Verse 2:

Electric Guitar:

e|--------------------------------------------------|
B|--------------------------------------------------|
G|---------------5--5--5-----------------5--5--5----|
D|--5----5--0----5--5--5----5----5--0----5--5--5----|
A|--5----5--0----3--3--3----5----5--0----3--3--3----|
E|--3----3--0---------------3----3--0---------------|
    She said, she'd take me anywhere, she'd take

e|--------------------------------------------------|
B|--------------------------------------------------|
G|---------------5--5--5-----------------5--5--5--0-|
D|--5----5--0----5--5--5----5----5--0----5--5--5--0-|
A|--5----5--0----3--3--3----5----5--0----3--3--3--0-|
E|--3----3--0---------------3----3--0---------------|
    me anywhere, as long as she stays with me.

e|--------------------------------------------------|
B|--------------------------------------------------|
G|---------------5--5--5-----------------5--5--5----|
D|--5----5--0----5--5--5----5----5--0----5--5--5----|
A|--5----5--0----3--3--3----5----5--0----3--3--3----|
E|--3----3--0---------------3----3--0---------------|
    She said, she'd take me anywhere, she'd take

e|--------------------------------------------------|
B|--------------------------------------------------|
G|---------------5--5--5-----------------5--5--5--0-|
D|--5----5--0----5--5--5----5----5--0----5--5--5--0-|
A|--5----5--0----3--3--3----5----5--0----3--3--3--0-|
E|--3----3--0---------------3----3--0---------------|
    me anywhere, as long as I stay clean.


Bass Guitar:

G|--------------------------------------------|
D|--------------------------------------------|
A|------------3--3--3-----------3--3--3-------|
E|---3--3--3-----------3--3--3----------------|
She said, she'd take me anywhere, she'd take me

G|--------------------------------------------|
D|--------------------------------------------|
A|------------3--3--3-----------3--3--3--3----|
E|---3--3--3-----------3--3--3----------------|
    anywhere, as long as she stays with me.

G|--------------------------------------------|
D|--------------------------------------------|
A|------------3--3--3-----------3--3--3-------|
E|---3--3--3-----------3--3--3----------------|
She said, she'd take me anywhere, she'd take me

G|--------------------------------------------|
D|--------------------------------------------|
A|------------3--3--3-----------3--3--3--3----|
E|---3--3--3-----------3--3--3----------------|
     anywhere, as long as I stay clean.


Main Chorus:

Electric Guitar:

e|--------------------------------------------------|
B|--------------------------------------------------|
G|---------------5--5--5-----------------5--5--5--0-|
D|--5----5--0----5--5--5----5----5--0----5--5--5--0-|
A|--5----5--0----3--3--3----5----5--0----3--3--3--0-|
E|--3----3--0---------------3----3--0---------------|
    Kiss,        kiss       Molly's      Lips.

e|--------------------------------------------------|
B|--------------------------------------------------|
G|---------------5--5--5-----------------5--5--5--0-|
D|--5----5--0----5--5--5----5----5--0----5--5--5--0-|
A|--5----5--0----3--3--3----5----5--0----3--3--3--0-|
E|--3----3--0---------------3----3--0---------------|
    Kiss,        kiss       Molly's      Lips.

e|--------------------------------------------------|
B|--------------------------------------------------|
G|---------------5--5--5-----------------5--5--5--0-|
D|--5----5--0----5--5--5----5----5--0----5--5--5--0-|
A|--5----5--0----3--3--3----5----5--0----3--3--3--0-|
E|--3----3--0---------------3----3--0---------------|
    Kiss,        kiss       Molly's      Lips.

e|--------------------------------------------------|
B|--------------------------------------------------|
G|---------------5--5--5-----------------5--5--5--0-|
D|--5----5--0----5--5--5----5----5--0----5--5--5--0-|
A|--5----5--0----3--3--3----5----5--0----3--3--3--0-|
E|--3----3--0---------------3----3--0---------------|
    Kiss,        kiss       Molly's      Lips.

Bass Guitar:

G|--------------------------------------------|
D|--------------------------------------------|
A|------------3--3--3-----------3--3--3-------|
E|---3--3--3-----------3--3--3----------------|
     Kiss,    kiss     Molly's  Lips.

G|--------------------------------------------|
D|--------------------------------------------|
A|------------3--3--3-----------3--3--3--3----|
E|---3--3--3-----------3--3--3----------------|
     Kiss,    kiss     Molly's  Lips.

G|--------------------------------------------|
D|--------------------------------------------|
A|------------3--3--3-----------3--3--3-------|
E|---3--3--3-----------3--3--3----------------|
     Kiss,    kiss     Molly's  Lips.

G|--------------------------------------------|
D|--------------------------------------------|
A|------------3--3--3-----------3--3--3--3----|
E|---3--3--3-----------3--3--3----------------|
     Kiss,    kiss     Molly's  Lips.


Bridge:

Electric Guitar:

e|--------------------------------------------------|
B|--------------------------------------------------|
G|---------------5--5--5-----------------5--5--5----|
D|--5----5--0----5--5--5----5----5--0----5--5--5----|
A|--5----5--0----3--3--3----5----5--0----3--3--3----|
E|--3----3--0---------------3----3--0---------------|

e|--------------------------------------------------|
B|--------------------------------------------------|
G|---------------5--5--5-----------------5--5--5--0-|
D|--5----5--0----5--5--5----5----5--0----5--5--5--0-|
A|--5----5--0----3--3--3----5----5--0----3--3--3--0-|
E|--3----3--0---------------3----3--0---------------|

e|--------------------------------------------------|
B|--------------------------------------------------|
G|---------------5--5--5-----------------5--5--5----|
D|--5----5--0----5--5--5----5----5--0----5--5--5----|
A|--5----5--0----3--3--3----5----5--0----3--3--3----|
E|--3----3--0---------------3----3--0---------------|

e|--------------------------------------------------|
B|--------------------------------------------------|
G|---------------5--5--5-----------------5--5--5--0-|
D|--5----5--0----5--5--5----5----5--0----5--5--5--0-|
A|--5----5--0----3--3--3----5----5--0----3--3--3--0-|
E|--3----3--0---------------3----3--0---------------|

Bass Guitar:

G|--------------------------------------------|
D|--------------------------------------------|
A|------------3--3--3-----------3--3--3-------|
E|---3--3--3-----------3--3--3----------------|

G|--------------------------------------------|
D|--------------------------------------------|
A|------------3--3--3-----------3--3--3--3----|
E|---3--3--3-----------3--3--3----------------|

G|--------------------------------------------|
D|--------------------------------------------|
A|------------3--3--3-----------3--3--3-------|
E|---3--3--3-----------3--3--3----------------|

G|--------------------------------------------|
D|--------------------------------------------|
A|------------3--3--3-----------3--3--3--3----|
E|---3--3--3-----------3--3--3----------------|


Verse 3:

Electric Guitar:

e|--------------------------------------------------|
B|--------------------------------------------------|
G|---------------5--5--5-----------------5--5--5----|
D|--5----5--0----5--5--5----5----5--0----5--5--5----|
A|--5----5--0----3--3--3----5----5--0----3--3--3----|
E|--3----3--0---------------3----3--0---------------|
    She said, she'd take me anywhere, she'd take

e|--------------------------------------------------|
B|--------------------------------------------------|
G|---------------5--5--5-----------------5--5--5--0-|
D|--5----5--0----5--5--5----5----5--0----5--5--5--0-|
A|--5----5--0----3--3--3----5----5--0----3--3--3--0-|
E|--3----3--0---------------3----3--0---------------|
    me anywhere, as long as she stays with me.

e|--------------------------------------------------|
B|--------------------------------------------------|
G|---------------5--5--5-----------------5--5--5----|
D|--5----5--0----5--5--5----5----5--0----5--5--5----|
A|--5----5--0----3--3--3----5----5--0----3--3--3----|
E|--3----3--0---------------3----3--0---------------|
    She said, she'd take me anywhere, she'd take

e|--------------------------------------------------|
B|--------------------------------------------------|
G|---------------5--5--5-----------------5--5--5--0-|
D|--5----5--0----5--5--5----5----5--0----5--5--5--0-|
A|--5----5--0----3--3--3----5----5--0----3--3--3--0-|
E|--3----3--0---------------3----3--0---------------|
    me anywhere, as long as I stay clean.


Bass Guitar:

G|--------------------------------------------|
D|--------------------------------------------|
A|------------3--3--3-----------3--3--3-------|
E|---3--3--3-----------3--3--3----------------|
She said, she'd take me anywhere, she'd take me

G|--------------------------------------------|
D|--------------------------------------------|
A|------------3--3--3-----------3--3--3--3----|
E|---3--3--3-----------3--3--3----------------|
    anywhere, as long as she stays with me.

G|--------------------------------------------|
D|--------------------------------------------|
A|------------3--3--3-----------3--3--3-------|
E|---3--3--3-----------3--3--3----------------|
She said, she'd take me anywhere, she'd take me

G|--------------------------------------------|
D|--------------------------------------------|
A|------------3--3--3-----------3--3--3--3----|
E|---3--3--3-----------3--3--3----------------|
     anywhere, as long as I stay clean.


Main Chorus:

Electric Guitar:

e|--------------------------------------------------|
B|--------------------------------------------------|
G|---------------5--5--5-----------------5--5--5--0-|
D|--5----5--0----5--5--5----5----5--0----5--5--5--0-|
A|--5----5--0----3--3--3----5----5--0----3--3--3--0-|
E|--3----3--0---------------3----3--0---------------|
    Kiss,        kiss       Molly's      Lips.

e|--------------------------------------------------|
B|--------------------------------------------------|
G|---------------5--5--5-----------------5--5--5--0-|
D|--5----5--0----5--5--5----5----5--0----5--5--5--0-|
A|--5----5--0----3--3--3----5----5--0----3--3--3--0-|
E|--3----3--0---------------3----3--0---------------|
    Kiss,        kiss       Molly's      Lips.

e|--------------------------------------------------|
B|--------------------------------------------------|
G|---------------5--5--5-----------------5--5--5--0-|
D|--5----5--0----5--5--5----5----5--0----5--5--5--0-|
A|--5----5--0----3--3--3----5----5--0----3--3--3--0-|
E|--3----3--0---------------3----3--0---------------|
    Kiss,        kiss       Molly's      Lips.

e|--------------------------------------------------|
B|--------------------------------------------------|
G|---------------5--5--5-----------------5--5--5--0-|
D|--5----5--0----5--5--5----5----5--0----5--5--5--0-|
A|--5----5--0----3--3--3----5----5--0----3--3--3--0-|
E|--3----3--0---------------3----3--0---------------|
    Kiss,        kiss       Molly's      Lips, ah. 

e|--------------------------------------------------|
B|--------------------------------------------------|
G|---------------5--5--5-----------------5--5--5--0-|
D|--5----5--0----5--5--5----5----5--0----5--5--5--0-|
A|--5----5--0----3--3--3----5----5--0----3--3--3--0-|
E|--3----3--0---------------3----3--0---------------|
    Kiss,        kiss       Molly's      Lips.

e|--------------------------------------------------|
B|--------------------------------------------------|
G|---------------5--5--5-----------------5--5--5--0-|
D|--5----5--0----5--5--5----5----5--0----5--5--5--0-|
A|--5----5--0----3--3--3----5----5--0----3--3--3--0-|
E|--3----3--0---------------3----3--0---------------|
    Kiss,        kiss       Molly's      Lips.

e|--------------------------------------------------|
B|--------------------------------------------------|
G|---------------5--5--5-----------------5--5--5--0-|
D|--5----5--0----5--5--5----5----5--0----5--5--5--0-|
A|--5----5--0----3--3--3----5----5--0----3--3--3--0-|
E|--3----3--0---------------3----3--0---------------|
    Kiss,        kiss       Molly's      Lips.

e|--------------------------------------------------|
B|--------------------------------------------------|
G|---------------5--5--5-----------------5--5--5--0-|
D|--5----5--0----5--5--5----5----5--0----5--5--5--0-|
A|--5----5--0----3--3--3----5----5--0----3--3--3--0-|
E|--3----3--0---------------3----3--0---------------|
    Kiss,        kiss       Mooooolly's  Lips. 

Bass Guitar:

|--------------------------------------------|
|--------------------------------------------|
|------------3--3--3-----------3--3--3-------|
|---3--3--3-----------3--3--3----------------|
    Kiss,    kiss     Molly's  Lips.
|--------------------------------------------|
|--------------------------------------------|
|------------3--3--3-----------3--3--3--3----|
|---3--3--3-----------3--3--3----------------|
    Kiss,    kiss     Molly's  Lips.
|--------------------------------------------|
|--------------------------------------------|
|------------3--3--3-----------3--3--3-------|
|---3--3--3-----------3--3--3----------------|
    Kiss,    kiss     Molly's  Lips.
|--------------------------------------------|
|--------------------------------------------|
|------------3--3--3-----------3--3--3--3----|
|---3--3--3-----------3--3--3----------------|
    Kiss,    kiss     Molly's  Lips, ah.
|--------------------------------------------|
|--------------------------------------------|
|------------3--3--3-----------3--3--3-------|
|---3--3--3-----------3--3--3----------------|
    Kiss,    kiss     Molly's  Lips.
|--------------------------------------------|
|--------------------------------------------|
|------------3--3--3-----------3--3--3--3----|
|---3--3--3-----------3--3--3----------------|
    Kiss,    kiss     Molly's  Lips.
|--------------------------------------------|
|--------------------------------------------|
|------------3--3--3-----------3--3--3-------|
|---3--3--3-----------3--3--3----------------|
    Kiss,    kiss     Molly's  Lips.
|--------------------------------------------|
|--------------------------------------------|
|------------3--3--3-----------3--3--3--3----|
|---3--3--3-----------3--3--3----------------|
    Kiss,    kiss     Molly's  Lips.


Electric Guitar Ending:

e|-------3---3--0~~~---|
B|-----5---5-----------|
G|---------------------|
D|---------------------|
A|--5------------------|
E|--5------------------|


And that's it! Kurt Cobain lives FOREVER in the hearts of us fans! Krist Novoselic is 
best bassist in the world, and Dave Grohl is the best drummer in the world!
NIRVANA RULES FOREVER!
Tap to rate this tab
 
# A B C D E F G H I J K L M N O P Q R S T U V W X Y Z