Song name
# A B C D E F G H I J K L M N O P Q R S T U V W X Y Z

Nirvana - Opinion tab

-------------------------------------------------------------------------------
			     opinions - nirvana
-------------------------------------------------------------------------------
i didnt see any tabs for this song, so i thought id add one. this is the electric
version, not the acoustic one found on the boxset.
Tabbed by:bobos
Email:irrelevantyouth@gmail.com

Tuning:standard

main riff
e|---------------------------------------------------------------------------|
B|---------------------------------------------------------------------------|
G|44-0-------77-0------------------------------------------------------------|
D|44-0-555-0-77-0-444--------------------------------------------------------|
A|22-0-555-0-55-0-444--------------------------------------------------------|
E|---0-333-0----0-222--------------------------------------------------------|

solo...with flange or chorus. let feedback rise & fall and improvise towards end.
e|---------------------------------------------------------------------------|
B|---------------------------------------------------------------------------|
G|4-hold---------------------------7-9-9-9--------7-9-9-9--------------------|
D|4-------------------------7-9-9-9--------7-9-9-9---------------------------|
A|2--------------------------------------------------------------------------|
E|---------------------------------------------------------------------------|


===============================================================================
Tap to rate this tab
# A B C D E F G H I J K L M N O P Q R S T U V W X Y Z