Song name
# A B C D E F G H I J K L M N O P Q R S T U V W X Y Z

Nirvana - Radio Friendly Unit Shifter tab

Nirvana - Radio Friendly Unit Shifter

Intro (with some strange feedback or I think a tremolo
pedal, bend a full step, release, then do vibratos):

e|---------------------------------|
B|-------------5bv-----------------|
G|-2bv-2bv-2bv-----2bv-2bv-2bv-----|
D|-----------------------------4bv-|
A|---------------------------------|
E|---------------------------------|

Inbetween the intro and chorus riff (when the drums and bass comes in)
hit some random scratches...

Chorus ("What is wrong with me"):

e|-----------------------------|
B|-----------------------------|
G|-----5-5---------4-4---------|
D|-7-7-5-5-5-5-5-5-4-4-4-4-4-4-|
A|-7-7-3-3-5-5-5-5-2-2-4-4-4-4-|
E|-5-5-----3-3-3-3-----2-2-2-2-|

Verses (Randomly picked with feedback and possible tremolo pedal):

e|---|
B|---|
G|---|
D|-7-|
A|-7-|
E|-5-|

Bridge (each chord hit 8 times):

e|---------|
B|---------|
G|-5-9-----|
D|-5-9-7-5-|
A|-3-7-7-5-|
E|-----5-3-|

Outro: pretty much same as intro, alot of higher notes hit...

Order:

Intro
Chorus (just the riff)
Verse
Chorus
Verse
Chorus
Bridge
Chorus
Verse
Chorus
Outro
Tap to rate this tab
 
# A B C D E F G H I J K L M N O P Q R S T U V W X Y Z