Song name
# A B C D E F G H I J K L M N O P Q R S T U V W X Y Z

Nirvana - Something In The Way tab

----------------------------------------------------------------------------
			  Something In The Way - Nirvana
----------------------------------------------------------------------------
Tabbed by:Carlsbad
Email:carloswazhere17@yahoo.com

Tuning:Standard Tuning

e|---------------------------------------------------------------------------|
B|---------------------------------------------------------------------------|
G|---------------------------------------------------------------------------|
D|---------------------------------------------------------------------------|
A|-------4--------4-------4--------0---------4-------------------0--0--------|
E|--4---------4------4---------0--------4---------4--4--4--4--4--------------|
 Play whats above 2x

e|--------------------------|--------------------------------------------------|
B|--------------------------|---3---3------------------------------------------|
G|--------------------------|---2---2------------------------------------------|
D|-4--4---4---4---4---4---0-|-------0------------------------------------------|
A|-4--4---4---4---4---4---0-|-------0--------4--------4----------4-------0-----|
E|-4--4---4---4---4---4---0-|-------0----4--------4--------4--------0----------|
-|

e|---------------------------------------------------------------------------|
B|---------------------------------------------------------------------------|
G|---------------------------------------------------------------------------|
D|---------------------------------------------------------------------------|
A|-------4--------4-------4--------0---------4-------------------0--0--------|
E|--4---------4------4---------0--------4---------4--4--4--4--4--------------|

e|--------------------------|--------------------------------------------------|
B|--------------------------|---3---3------------------------------------------|
G|--------------------------|---2---2------------------------------------------|
D|-4--4---4---4---4---4---0-|-------0---4-4-4----4------4----------------------|
A|-4--4---4---4---4---4---0-|-------0---4-4-4----4------4-----0----------------|
E|-4--4---4---4---4---4---0-|-------0---4-4-4----4------4-----0----------------|
-|
Tap to rate this tab
# A B C D E F G H I J K L M N O P Q R S T U V W X Y Z