Song name
# A B C D E F G H I J K L M N O P Q R S T U V W X Y Z

Nirvana - Spank Thru tab

#----------------------------------PLEASE NOTE---------------------------------#
#This file is the author's own work and represents their interpretation of the #
#song. You may only use this file for private study, scholarship, or research. #
#------------------------------------------------------------------------------#




Transcribed by kevin3593
	



Gtr I (E A D G B E) - 'Untitled'
Gtr II (E A D G B E) - 'Untitled'

   Intro
   4/4
    Gtr I
    Q  E S S S S S S S S S S   Q  E S S S S S S S S S S
||---------------------------|--------------------------|
||o------------------3-3-0---|----------------0-0-0-0-0-|
||--2----2-2-0-0-0-0-2-2-0-2-|-2----2-2-2-0---0-0-0-0-0-|
||--2--2-2-2-0-0-0-0-0-0-0-2-|-2--2-2-2-2-0-0-0-0-0-0-0-|
||o-0--0-0-0-0-----0-------0-|-0--0-0-0-0-0-------------|
||-----------0-3-3-----------|------------0-3-3-3-3-3-3-|


  Q  E S S S S S S S S S S   Q  E S S S S S S S S S S
|--------------------------|----------------------------||
|------------------3-3-0---|----------------0-0-0-0-0--o||
|-2----2-2-0-0-0-0-2-2-0-2-|-2----2-2-2-0---0-0-0-0-0---||
|-2--2-2-2-0-0-0-0-0-0-0-2-|-2--2-2-2-2-0-0-0-0-0-0-0---||
|-0--0-0-0-0-----0-------0-|-0--0-0-0-0-0--------------o||
|----------0-3-3-----------|------------0-3-3-3-3-3-3---||


   Verse
    PM------------------------------------------------|
    Q  E S S S S S S S S S S   Q  E S S S S S S S S S S  6x
||---------------------------|---------------------------||
||o--------------------------|--------------------------o||
||-----------0-----0-7-7-7-7-|-7----7-7-7-0--------------||
||--7--7-7-7-0-5-5-0-7-7-7-7-|-7--7-7-7-7-0-5-5-5-5-5-5--||
||o-7--7-7-7-0-5-5-0-5-5-5-5-|-7--7-7-7-7-0-5-5-5-5-5-5-o||
||--5--5-5-5-0-3-3-----------|-5--5-5-5-5-0-3-3-3-3-3-3--||


 Chorus 1
  Q  E E E E E E   Q  E E E E E E   Q  E E E E E E   Q  E E E E E E
|----------------|----------------|----------------|----------------|
|----------------|----------------|----------------|----------------|
|-7--7-7-7-7-7---|--------------0-|------3-3-------|------5---------|
|-7--7-7-7-7-7-0-|-7--7-7-7-7-7-0-|-3----3-3---3-3-|------5---5-5-0-|
|-5--5-5-5-5-5-0-|-7--7-7-7-7-7-0-|-3--3-3-3-3-3-3-|-5--5-5-5-5-5-0-|
|----------------|-5--5-5-5-5-5-0-|-1--1-1-1-1-1-1-|-3--3-3-3-3-3-0-|


  Q  E E E E E E   Q  E E E E E E   W          +W
|-2--2-2-2-2-2---|----------------|----------|--------|
|-3--3-3-3-3-3---|-2--2-2-2-2-2---|----------|--------|
|-2--2-2-2-2-2---|-2--2-2-2-2-2-0-|----------|--------|
|-0--0-0-0-0-0-0-|-2--2-2-2-2-2-0-|-3--------|-(3)----|
|--------------0-|-0--0-0-0-0-0-0-|-3--------|-(3)----|
|----------------|--------------0-|-1--------|-(1)----|


                                                Gtr II
  PM----------------------------------|
  E E E E E E E E   S S S S S S S S S S S S S S S S
|-----------------|---------------------0-0-0-0-----|
|-----------------|---------------------0-0-0-0-----|
|-----------------|-------------------------------0-|
|-5-5-5-5-5-5-5-5-|---------5-5-5-5-5-5-5-5-5-5-5-0-|
|-5-5-5-5-5-5-5-5-|-5-5-5-5-5-5-5-5-5-5-5-5-5-5-5-0-|
|-3-3-3-3-3-3-3-3-|-3-3-3-3-3-3-3-3-3-3-3-3-3-3-3-0-|


   Verse 2 & 3
    Q  E E   +E  E E E   Q  E E   +E  E E E
||---------------------|--------------------|
||o--------------------|--------------------|
||---------------------|--------------------|
||---------------------|--------------------|
||o-2--------------3---|-2--------------3---|
||--0--3-5b7-(5)-0---0-|-0--3-5b7-(5)-0---0-|


  Q  E E   +E  E E E   Q  E E   +E  E E E
|--------------------|---------------------|
|--------------------|---------------------|
|--------------------|---------------------|
|--------------------|---------------------|
|-2--------------3---|-2--------------3----|
|-0--3-5b7-(5)-0---0-|-0--3-5b7-(5)-0---0--|


  Q  E E   +E  E E E   Q  E E   +E  E E E
|--------------------|--------------------|
|--------------------|--------------------|
|--------------------|--------------------|
|--------------------|--------------------|
|-2--------------3---|-2--------------3---|
|-0--3-5b7-(5)-0---0-|-0--3-5b7-(5)-0---0-|


  Q  E E   +E  E E E   Q  E E   +E  E E E
|--------------------|--------------------|
|--------------------|--------------------|
|--------------------|--------------------|
|--------------------|--------------------|
|-2--------------3---|-2--------------3---|
|-0--3-5b7-(5)-0---0-|-0--3-5b7-(5)-0---0-|


  Q  E E   +E  E E E   Q  E E   +E  E E E
|--------------------|--------------------|
|--------------------|--------------------|
|--------------------|--------------------|
|--------------------|--------------------|
|-2--------------3---|-2--------------3---|
|-0--3-5b7-(5)-0---0-|-0--3-5b7-(5)-0---0-|


  Q  E E   +E  E E E   Q  E E   +E  E E E
|--------------------|--------------------|
|--------------------|--------------------|
|--------------------|--------------------|
|--------------------|--------------------|
|-2--------------3---|-2--------------3---|
|-0--3-5b7-(5)-0---0-|-0--3-5b7-(5)-0---0-|


 Chorus 2 & 3
  Q  E E E E E E   E E E E E E E E   Q  E E E E E E   E E Q  E E E E
|----------------|-----------------|----------------|----------------|
|--------------3-|-3-3-3-----------|--------------3-|-3-3------------|
|-4--4-4-4-3-2-2-|-2-2-2-2-2-2-2-3-|-4--4-4-4-3-2-2-|-2-2------2-2-3-|
|-4--4-4-4-3-2-0-|-0-0-0-2-2-2-2-3-|-4--4-4-4-3-2-0-|-0-0------2-2-3-|
|-2--2-2-2-1-0---|-------0-0-0-0-1-|-2--2-2-2-1-0---|----------0-0-1-|
|----------------|-----------------|----------------|----------------|


  Q  E E E E E E   E E E E E E E E   Q  E E +E  E E E   E E E E E E E E
|----------------|-----------------|------------------|------------------||
|--------------3-|-3-3-3-----------|------------------|-----------------o||
|-4--4-4-4-3-2-2-|-2-2-2-2-2-2-2-3-|-4--4-4-(4)-4-4-4-|------------------||
|-4--4-4-4-3-2-0-|-0-0-0-2-2-2-2-3-|-4--4-4-(4)-4-4-4-|-----5-0-----3-0--||
|-2--2-2-2-1-0---|-------0-0-0-0-1-|-2--2-2-(2)-2-2-2-|-5-5-----3-3-----o||
|----------------|-----------------|------------------|-3-3-----1-1------||


 Interlude
  Q  E E   +E  E E E   Q  E E   +E  E E E
|--------------------|--------------------|
|--------------------|--------------------|
|--------------------|--------------------|
|--------------------|--------------------|
|-2--------------3---|-2--------------3---|
|-0--3-5b7-(5)-0---0-|-0--3-5b7-(5)-0---0-|


  Q  E E   +E  E E E   Q  E E   +E  E E E
|--------------------|--------------------|
|--------------------|--------------------|
|--------------------|--------------------|
|--------------------|--------------------|
|-2--------------3---|-2--------------3---|
|-0--3-5b7-(5)-0---0-|-0--3-5b7-(5)-0---0-|


  Q  E E   +E  E E E   Q  E E   +E  E E E
|--------------------|--------------------|
|--------------------|--------------------|
|--------------------|--------------------|
|--------------------|--------------------|
|-2--------------3---|-2--------------3---|
|-0--3-5b7-(5)-0---0-|-0--3-5b7-(5)-0---0-|


  Q  E E   +E  E E E   Q  E E   +E  E E E
|--------------------|--------------------|
|--------------------|--------------------|
|--------------------|--------------------|
|--------------------|--------------------|
|-2--------------3---|-2--------------3---|
|-0--3-5b7-(5)-0---0-|-0--3-5b7-(5)-0---0-|


  Q  E E   +E  E E E   Q  E E   +E  E E E
|--------------------|--------------------|
|--------------------|--------------------|
|--------------------|--------------------|
|--------------------|--------------------|
|-2--------------3---|-2--------------3---|
|-0--3-5b7-(5)-0---0-|-0--3-5b7-(5)-0---0-|


  Q  E E   +E  E E E   Q  E E   +E  E E E
|--------------------|--------------------|
|--------------------|--------------------|
|--------------------|--------------------|
|--------------------|--------------------|
|-2--------------3---|-2--------------3---|
|-0--3-5b7-(5)-0---0-|-0--3-5b7-(5)-0---0-|


  Q  E E   +E  E E E   Q  E E   +E  E E E
|--------------------|--------------------|
|--------------------|--------------------|
|--------------------|--------------------|
|--------------------|--------------------|
|-2--------------3---|-2--------------3---|
|-0--3-5b7-(5)-0---0-|-0--3-5b7-(5)-0---0-|


  Q  E E   +E  E E E   Q  E E   +E  E E E
|--------------------|--------------------|
|--------------------|--------------------|
|--------------------|--------------------|
|--------------------|--------------------|
|-2--------------3---|-2--------------3---|
|-0--3-5b7-(5)-0---0-|-0--3-5b7-(5)-0---0-|


  Q  E E   +E  E E E   Q  E E   +E  E E E   Q  E E   +E  E E E
|--------------------|--------------------|--------------------|
|--------------------|--------------------|--------------------|
|--------------------|--------------------|--------------------|
|--------------------|--------------------|--------------------|
|-2--------------3---|-2--------------3---|-2--------------3---|
|-0--3-5b7-(5)-0---0-|-0--3-5b7-(5)-0---0-|-0--3-5b7-(5)-0---0-|


 Out-Chorus
  Q  E E E E E E   E E E E E E E E   Q  E E E E E E   E E Q  E E E E
|----------------|-----------------|----------------|----------------|
|--------------3-|-3-3-3-----------|--------------3-|-3-3------------|
|-4--4-4-4-3-2-2-|-2-2-2-2-2-2-2-3-|-4--4-4-4-3-2-2-|-2-2------2-2-3-|
|-4--4-4-4-3-2-0-|-0-0-0-2-2-2-2-3-|-4--4-4-4-3-2-0-|-0-0------2-2-3-|
|-2--2-2-2-1-0---|-------0-0-0-0-1-|-2--2-2-2-1-0---|----------0-0-1-|
|----------------|-----------------|----------------|----------------|


  Q  E E E E E E   E E E E E E E E   Q  E E +E  E E E   E E E E E E E E
|----------------|-----------------|------------------|-----------------|
|--------------3-|-3-3-3-----------|------------------|-----------------|
|-4--4-4-4-3-2-2-|-2-2-2-2-2-2-2-3-|-4--4-4-(4)-4-4-4-|-----------------|
|-4--4-4-4-3-2-0-|-0-0-0-2-2-2-2-3-|-4--4-4-(4)-4-4-4-|-----5-0-----3-0-|
|-2--2-2-2-1-0---|-------0-0-0-0-1-|-2--2-2-(2)-2-2-2-|-5-5-5---3-3-3---|
|----------------|-----------------|------------------|-3-3-3---1-1-1---|


 Outro
  H.=H
  Q  E E   +E  E E E   H    +Q   Q    Q  H    Q    +H     H
|--------------------|--------------|------------|-------------|
|--------------------|--------------|------------|-------------|
|--------------------|--------------|------------|-------------|
|--------------------|-2----(2)-----|---------2--|-(2)---------|
|-2--------------3---|-2----(2)-----|---------2--|-(2)---------|
|-0--3-5b7-(5)-0---0-|-0----(0)-----|---------0--|-(0)---------|


  H    +Q   Q    Q  H    Q    +H     H      W
|--------------|------------|-------------|------*|
|--------------|------------|-------------|------*|
|--------------|------------|-------------|------*|
|-2----(2)-----|---------2--|-(2)---------|------*|
|-2----(2)-----|---------2--|-(2)---------|------*|
|-0----(0)-----|---------0--|-(0)---------|------*|



Duration Legend
---------------
W - whole; H - half; Q - quarter; E - 8th; S - 16th; T - 32nd; X - 64th; a - acciaccatura
+ - note tied to previous; . - note dotted; .. - note double dotted
Uncapitalized letters represent notes that are staccato (1/2 duration)
Irregular groupings are notated above the duration line
Duration letters will always appear directly above the note/fret number it represents the
duration for.  Duration letters with no fret number below them represent rests.  Multi-
bar rests are notated in the form Wxn, where n is the number of bars to rest for.  Low
melody durations appear below the staff

Tablature Legend
----------------
 h   - hammer-on
 p   - pull-off
 b   - bend
 pb  - pre-bend
 r   - bend release (if no number after the r, then release immediately)
 /\  - slide into or out of (from/to "nowhere")
 s   - legato slide
 S   - shift slide
 - natural harmonic
[n]  - artificial harmonic
n(n) - tapped harmonic
 ~   - vibrato
 tr  - trill
 T   - tap
 TP  - trem. picking
 PM  - palm muting
\n/  - tremolo bar dip; n = amount to dip
 \n  - tremolo bar down
 n/  - tremolo bar up
/n\  - tremolo bar inverted dip
 =   - hold bend; also acts as connecting device for hammers/pulls
 <> - volume swell (louder/softer)
 x   - on rhythm slash represents muted slash
 o   - on rhythm slash represents single note slash

Misc Legend
-----------
 |  - bar
||  - double bar
||o - repeat start
o|| - repeat end
*|  - double bar (ending)
 :  - bar (freetime)
 $  - Segno
 &  - Coda
Tempo markers -  = BPM(8/16=s8/s16), where s8 = swing 8ths, s16 = swing 16ths

Tap to rate this tab
 
# A B C D E F G H I J K L M N O P Q R S T U V W X Y Z