Song name
# A B C D E F G H I J K L M N O P Q R S T U V W X Y Z

Nirvana - Stay Away tab

#----------------------------------PLEASE NOTE--------------------------------#
#This file is the author's own work and represents their interpretation of the#
#song. You may only use this file for private study, scholarship, or research.#
#-----------------------------------------------------------------------------#
#-- File created with Instab - http://www.pconline.com/~smcarey/instab.html --#
#-----------------------------------------------------------------------------#

Author/Artist: Nirvana
Title: Stay Away
Transcribed by: Saverain
d strum down
u strum up
pb pre bend
br bend release

End song on D fading out.

Standard Tuning

----------------|------------------------------|--|---------------------------|
----------------|-------------1-1-1------------|--|---------------------------|
----------------|-2-2--4-4-4--x-x-x--5-5-5-5-2-|--|---------------------------|
----------------|-0-0--4-4-4--3-3-3--5-5-5-5-0-|--|---------------------------|
----------------|-0-0--2-2-2--3-3-3--3-3-0-3-0-|--|---------------------------|
----------------|-------------1-1-1------------|--|---------------------------|
 Intro/Chorus     d u  u d u  u d u  u d u d u

----------------|----------------------------------------------------------|--|
----------------|----------------------------------------------------------|--|
----------------|------------pb5-5-5-5brr----------------------------------|--|
----------------|----------------------------------------------------------|--|
----------------|----------------------------------------------------------|--|
----------------|----------------------------------------------------------|--|
  Verse       Prebend 5 strike four times then bend more and release bends

----------------|----------------------------------------------------|--|-----|
----------------|-3--3--3-3--3--3-3--3-3-3---------------------------|--|-----|
----------------|-2--2--2-2--2--2-2--2-2-2---------------3-3-3-3br-2-|--|-----|
----------------|-0--0--0-0--0--0-0--0-0-0--4--4--4-4--4-----------0-|--|-----|
----------------|---------------------------4--4--4-4--4-----------0-|--|-----|
----------------|---------------------------2--2--2-2--2-------------|--|-----|
  Interlude       d  d  d u  u  u d  d u d  d  d  d u  d u d u d   u
Tap to rate this tab
 
# A B C D E F G H I J K L M N O P Q R S T U V W X Y Z