Song name
# A B C D E F G H I J K L M N O P Q R S T U V W X Y Z

Nirvana - Talk To Me tab

normal tuning e,a,d,g,b,e
/=slide
b=bend


e[-3-3-----------3/1-1-1---------]
a[-----2-2--3-3----------1-1-1-1-]
d[-------------------------------]     intro
g[-------------------------------]
b[-------------------------------]
e[-------------------------------]


verses

e[--3-3---------3/1---------]
a[--5-5-2-2-3-3-5/3-1-1-1-1-]
d[--5-5-4-4-5-5-5/3-3-3-3-3-]
g[------4-4-5-5-----3-3-3-3-]
b[--------------------------]
e[--------------------------]

bridge

e[------------------]
a[------------------] 
d[------------------]  not completely sure of how many times
g[---3(x28)---------]  just listen to the son and follow it
b[------------------]
e[------------------]


chorus

the chorus is the same as the verse 

solo  

im not exactly sure of the solo i know he is playing low on the fret board then he goes
to the middle on the 4 th string(d) then he goes low again  then he goes high on the 5
th and 6th string (a,d) on the first five frets i can get it to sound similar i just
cant really tab it   so ab lib it 

tabbed by mike  nirvana_981@hotmail.com if you want more tabs by nirvana  cause alot of
these in here arent very accurate in my opinion
Tap to rate this tab
 
# A B C D E F G H I J K L M N O P Q R S T U V W X Y Z