Song name
# A B C D E F G H I J K L M N O P Q R S T U V W X Y Z

Nirvana - Bandest tab

Tuning: eb, Bb, Gb, Db, Ab, Eb (Half-step down)
Effects: Distortion
Key:
/ = slide down
\ = slide up
~ = vibrato

Intro/verse
w/Heavy Dist.
eb------------------------|
Bb------------------------|
Gb-------2-2-2------2-2-2-|
Db----1--2-2-2---1--2-2-2-| Repeat 6x for verse
Ab--3--3-0-0-0-3--3-0-0-0-|
Eb------------------------|


Chorus
eb-----2------------------------------|
Bb-----2------------------------------| Repeat 4x and back the verse
Gb-----2------------------------------|
Db-----4-------------------2----------|
Ab-----4--0-2-3-3-2-0-2-3-4-4-3-2-0---|
Eb-2-2------------------------------2-|
Tap to rate this tab
 
# A B C D E F G H I J K L M N O P Q R S T U V W X Y Z