Song name
# A B C D E F G H I J K L M N O P Q R S T U V W X Y Z

Nirvana - Very Ape tab

Album|In Utero
Year|1993

Tune Down 1/2 Step

Intro/Verse


       (x14)
e|-------------------|--------------------------------|
b|-------------------|--------------------------------|
G|-------------------|-5--5-5--5-5-5-0-3--3-3-3-6/7---|
D|-5/7-7-x-5/8-8-x---|-5--5-5--5-5-5-0-3--3-3-3-6/7---|
A|-5/7-7-x-5/8-8-x---|-3--3-3--3-3-3-0-1--1-1-1-4/5---|
E|-3/5-5-x-3/6-6-x---|--------------------------------|



       (x10)
e|-------------------|--------------------------------|
b|-------------------|--------------------------------|
G|-------------------|-5--5-5--5-5-5-0-3--3-3-3-6/7---|
D|-5/7-7-x-5/8-8-x---|-5--5-5--5-5-5-0-3--3-3-3-6/7---|
A|-5/7-7-x-5/8-8-x---|-3--3-3--3-3-3-0-1--1-1-1-4/5---|
E|-3/5-5-x-3/6-6-x---|--------------------------------|


       (x3)                 Before Chorus
e|-------------------|--------------------------------|
b|-------------------|--------------------------------|
G|-------------------|--------------------------------|
D|-5/7-7-x-5/8-8-x---|-x-7-7-x-5-8-8-0----------------|
A|-5/7-7-x-5/8-8-x---|-x-7-7-x-5-8-8-0----------------|
E|-3/5-5-x-3/6-6-x---|-x-5-5-x-3-6-6-0----------------|

Chorus (x4)

e|------------------------------------|
b|------------------------------------|
G|----5-/8-8--/12-12------------------|
D|-7--5-/8-8--/12-12--5-5-5-0---------|
A|-7--3-/6-6--/10-10--5-5-5-0---------|
E|-5------------------3-3-3-0---------|


      (x10)
e|-------------------|--------------------------------|
b|-------------------|--------------------------------|
G|-------------------|-5--5-5--5-5-5-0-3--3-3-3-6/7---|
D|-5/7-7-x-5/8-8-x---|-5--5-5--5-5-5-0-3--3-3-3-6/7---|
A|-5/7-7-x-5/8-8-x---|-3--3-3--3-3-3-0-1--1-1-1-4/5---|
E|-3/5-5-x-3/6-6-x---|--------------------------------|


       (x2)                 Before Chorus
e|-------------------|--------------------------------|
b|-------------------|--------------------------------|
G|-------------------|--------------------------------|
D|-5/7-7-x-5/8-8-x---|-x-7-7-x-5-8-8-0----------------|
A|-5/7-7-x-5/8-8-x---|-x-7-7-x-5-8-8-0----------------|
E|-3/5-5-x-3/6-6-x---|-x-5-5-x-3-6-6-0----------------|


       (x8)
e|------------------------------------|----------|
b|------------------------------------|----------|
G|----5-/8-8--/12-12------------------|----------|
D|-7--5-/8-8--/12-12--5-5-5-0---------|--7-7\----|
A|-7--3-/6-6--/10-10--5-5-5-0---------|--7-7\----|
E|-5------------------3-3-3-0---------|--5-5\----|


2nd Guitar

      Verse                    Verse Variation
e|-----------------------|-15-15--13-15/16--15------|
b|-----------------------|--------------------------|
G|-14-14--12-14/15--12---|--------------------------|
D|-----------------------|--------------------------|
A|-----------------------|--------------------------|
E|-----------------------|--------------------------|

Chorus
e|-------------------------------------|
b|----13/16-16--16h20-20---------------|
G|-14--------------------12-12-12-12---|
D|-------------------------------------|
A|-------------------------------------|
E|-------------------------------------|


Tap to rate this tab
# A B C D E F G H I J K L M N O P Q R S T U V W X Y Z