Song name
# A B C D E F G H I J K L M N O P Q R S T U V W X Y Z

Nirvana - Sliver tab

1st Verse Bass tabbed for guitar i think
e|----------------------------|
b|----------------------------|
g|----------------------------|
d|----------------------------|
a|---3-3-3---------3-3-0----0-|
E|---------1-1-1---------1-3--|

Chorus
e|-----------------------------|
b|-----------------------------|
g|-5-5-5--2-2-2-2--------------|(Distortion)
d|-5-5-5--2-2-2-2--------------|
a|-3-3-3--2-2-2-2--------------|
E|-----------------------------|


2nd Verse
e|-------------------------------|
b|-------------------------------|
g|-5-5-5---------5-5-5--2-2-2-2--| (clean)
d|-5-5-5--3-3-3--5-5-5--2-2-2-2--|
a|-3-3-3--3-3-3--3-3-3--2-2-2-2--|
E|--------1-1-1------------------|

Chorus
e|-----------------------------|
b|-----------------------------|
g|-5-5-5--2-2-2-2--------------|(Distortion)
d|-5-5-5--2-2-2-2--------------|
a|-3-3-3--2-2-2-2--------------|
E|-----------------------------|

3rd verse
e------------------------------------|
b------------------------------------|
g-5---555-----5----------------------| (clean)
d-5---555-----5----------------------|
a-3---333-----3----------------------|

Chorus
e|-----------------------------|
b|-----------------------------|
g|-5-5-5--2-2-2-2--------------|(Distortion)
d|-5-5-5--2-2-2-2--------------|
a|-3-3-3--2-2-2-2--------------|
E|-----------------------------|

End on
e------|
b------|
g---5--|
d---5--|
a---3--|
E------|
Tap to rate this tab
 
# A B C D E F G H I J K L M N O P Q R S T U V W X Y Z