Song name
# A B C D E F G H I J K L M N O P Q R S T U V W X Y Z

Nirvana - Vaseline Cover Songs tab

Intro
Pm................x3
|---------------|
|---------------|
|---------------|
|---------------|
|---------------|
|-6--6-6-6--3-3-|

Verse
Pm.............x2..............  x2...........................
|---------------|-----------------|----------------------------0-|
|---------------|---------------0-|----------------------------0-|
|---------------|---------------0-|------------------------------|
|---------------|-----------------|------------------------------|
|---------------|-----------------|------------------------------|
|-6--6-6-6-x--3-|-6--6-6-6-x--3---|-6--6-6-6-x-3--6--6-6-6-x-3---|

Pre-choruz
Pm.................................
|----------------------------------|
|----------------------------------|
|----------------------------------|
|----------------------------------|
|----------------------8-8-8-8-8-8-|
|-6--6-6-6-x--3--6-6-6-6-6-6-6-6-6-|

Choruz                      x4 
|----------------------------|
|----------------------------|
|----------------------------|
|-8--8--12-12-x-9--9-9-9-9-9-|
|-8--8--12-12-x-9--9-9-9-9-9-|
|-6--6--10-10-x-7--7-7-7-7-7-|

Solo
|-----------------------------------------------------------------------|
|-----------------------------------------------------------------------|
|-----------------------------------------------------------------------|
|-9b/r----1-0-1v--1-1v--4-3-4-5-8--8-7-8-8-7-6-3-2-3v--5-6-7b/rv--6t-7t-|
|-----------------------------------------------------------------------|
|-----------------------------------------------------------------------|

Pm - muting
b/r - bend / release
v - vibratto
t - tapping
Tap to rate this tab
# A B C D E F G H I J K L M N O P Q R S T U V W X Y Z