Song name
# A B C D E F G H I J K L M N O P Q R S T U V W X Y Z

Nirvana - The Money Will Roll Right In tab

this song was originally by the hardcore punk band called "fang".
i first heard it on "Live at Reading"
(ps get the video AND the audio,the concert is much cooler when you can actually watch 
plus you can watch the complete trainwreck of "love buzz" and you should get the audio 
you can listen to it in
the car and you can put it on your ipod)it wasnt all that tough to tab.
i got the intro/verse from watching kurt play it, and the rest i just tabbed out myself. 
just say that it took more time
to type it up than it did to tab it. but, i think that its pretty accurate. please rate 
comment

TUNING: STANDARD

intro/verse
|-----------------|-----------------|-----------------|-----------------|
|-----------------|-----------------|-----------------|-----------------|
|-----------------|-----------------|-----------------|-----------------|
|-----------------|-----------------|-----------------|-----------------|
|-----------------|-----------------|-----------------|-----------------|
|-0-0-0-0-0-2-3-4-|-0-0-0-0-0-2-3-4-|-0-0-0-0-0-2-3-4-|-0-0-0-0-0-2-3-4-|
 |
 V band joins
|-----------------|-----------------|-----------------|-----------------|
|-----------------|-----------------|-----------------|-----------------|
|-----------------|-----------------|-----------------|-----------------|
|-----------------|-----------------|-----------------|-----------------|
|-----------------|-----------------|-----------------|-----------------|
|-0-0-0-0-0-2-3-4-|-0-0-0-0-0-2-3-4-|-0-0-0-0-0-2-3-4-|-0-0-0-0-0-2-3-4-|

|-----------------|-----------------|-----------------|-----------------|
|-----------------|-----------------|-----------------|-----------------|
|-----------------|-----------------|-----------------|-----------------|
|-----------------|-----------------|-----------------|-----------------|
|-----------------|-----------------|-----------------|-----------------|
|-0-0-0-0-0-2-3-4-|-0-0-0-0-0-2-3-4-|-0-0-0-0-0-2-3-4-|-0-0-0-0-0-2-3-4-|
     im going to hollywood               because i   am   so    good

|-----------------|-----------------|-----------------|-----------------|
|-----------------|-----------------|-----------------|-----------------|
|-----------------|-----------------|-----------------|-----------------|
|-----------------|-----------------|-----------------|-----------------|
|-----------------|-----------------|-----------------|-----------------|
|-0-0-0-0-0-2-3-4-|-0-0-0-0-0-2-3-4-|-0-0-0-0-0-2-3-4-|-0-0-0-0-0-2-3-4-|
     you know how i feel  and i'll get   to f*** brooke shields

|-----------------------------------------------------------------|
|-----------------------------------------------------------------|
|---------------------------------4-4-4-4-4-4-4-4-3-3-3-3---------|
|-3-3-3-3-3-3-3-3-3-3-3-3-3-3-3-3-4-4-4-4-4-4-4-4-3-3-3-3-3-3-3-3-|
|-3-3-3-3-3-3-3-3-3-3-3-3-3-3-3-3-2-2-2-2-2-2-2-2-1-1-1-1-3-3-3-3-|
|-1-1-1-1-1-1-1-1-1-1-1-1-1-1-1-1-------------------------1-1-1-1-|
       and i'll just sit and grin, the money will roll  right  in

|----------------|-----------------|-----------------|-----------------|
|----------------|-----------------|-----------------|-----------------|
|----------------|-----------------|-----------------|-----------------|
|----------------|-----------------|-----------------|-----------------|
|----------------|-----------------|-----------------|-----------------|
|0-0-0-0-0-2-3-4-|-0-0-0-0-0-2-3-4-|-0-0-0-0-0-2-3-4-|-0-0-0-0-0-2-3-4-|

|-----------------|-----------------|-----------------|-----------------|
|-----------------|-----------------|-----------------|-----------------|
|-----------------|-----------------|-----------------|-----------------|
|-----------------|-----------------|-----------------|-----------------|
|-----------------|-----------------|-----------------|-----------------|
|-0-0-0-0-0-2-3-4-|-0-0-0-0-0-2-3-4-|-0-0-0-0-0-2-3-4-|-0-0-0-0-0-2-3-4-|
     i wanna be a star                   im going to have a car

|-----------------|-----------------|-----------------|-----------------|
|-----------------|-----------------|-----------------|-----------------|
|-----------------|-----------------|-----------------|-----------------|
|-----------------|-----------------|-----------------|-----------------|
|-----------------|-----------------|-----------------|-----------------|
|-0-0-0-0-0-2-3-4-|-0-0-0-0-0-2-3-4-|-0-0-0-0-0-2-3-4-|-0-0-0-0-0-2-3-4-|
     and you'll have to admit,        ill be rich as s***

|-----------------------------------------------------------------|
|-----------------------------------------------------------------|
|---------------------------------4-4-4-4-4-4-4-4-3-3-3-3---------|
|-3-3-3-3-3-3-3-3-3-3-3-3-3-3-3-3-4-4-4-4-4-4-4-4-3-3-3-3-3-3-3-3-|
|-3-3-3-3-3-3-3-3-3-3-3-3-3-3-3-3-2-2-2-2-2-2-2-2-1-1-1-1-3-3-3-3-|
|-1-1-1-1-1-1-1-1-1-1-1-1-1-1-1-1-------------------------1-1-1-1-|
       and i'll just sit and grin, the money will roll  right  in

|----------------|-----------------|-----------------|-----------------|
|----------------|-----------------|-----------------|-----------------|
|----------------|-----------------|-----------------|-----------------|
|----------------|-----------------|-----------------|-----------------|
|----------------|-----------------|-----------------|-----------------|
|0-0-0-0-0-2-3-4-|-0-0-0-0-0-2-3-4-|-0-0-0-0-0-2-3-4-|-0-0-0-0-0-2-3-4-|

for the solo just improvise


|----------------|-----------------|-----------------|-----------------|
|----------------|-----------------|-----------------|-----------------|
|----------------|-----------------|-----------------|-----------------|
|----------------|-----------------|-----------------|-----------------|
|----------------|-----------------|-----------------|-----------------|
|0-0-0-0-0-2-3-4-|-0-0-0-0-0-2-3-4-|-0-0-0-0-0-2-3-4-|-0-0-0-0-0-2-3-4-|


|----------------|-----------------|-----------------|-----------------|
|----------------|-----------------|-----------------|-----------------|
|----------------|-----------------|-----------------|-----------------|
|----------------|-----------------|-----------------|-----------------|
|----------------|-----------------|-----------------|-----------------|
|0-0-0-0-0-2-3-4-|-0-0-0-0-0-2-3-4-|-0-0-0-0-0-2-3-4-|-0-0-0-0-0-2-3-4-|
    i would give you some                if you only woulda treated me nice

|----------------|-----------------|-----------------|-----------------|
|----------------|-----------------|-----------------|-----------------|
|----------------|-----------------|-----------------|-----------------|
|----------------|-----------------|-----------------|-----------------|
|----------------|-----------------|-----------------|-----------------|
|0-0-0-0-0-2-3-4-|-0-0-0-0-0-2-3-4-|-0-0-0-0-0-2-3-4-|-0-0-0-0-0-2-3-4-|
 you did as you did            and you'll feel pretty stupid

|-----------------------------------------------------------------|
|-----------------------------------------------------------------|
|---------------------------------4-4-4-4-4-4-4-4-3-3-3-3---------|
|-3-3-3-3-3-3-3-3-3-3-3-3-3-3-3-3-4-4-4-4-4-4-4-4-3-3-3-3-3-3-3-3-|
|-3-3-3-3-3-3-3-3-3-3-3-3-3-3-3-3-2-2-2-2-2-2-2-2-1-1-1-1-3-3-3-3-|
|-1-1-1-1-1-1-1-1-1-1-1-1-1-1-1-1-------------------------1-1-1-1-|
       and i'll just sit and grin, the money will roll  right  in

|----------------|-----------------|-----------------|-----------------|
|----------------|-----------------|-----------------|-----------------|
|----------------|-----------------|-----------------|-----------------|
|----------------|-----------------|-----------------|-----------------|
|----------------|-----------------|-----------------|-----------------|
|0-0-0-0-0-2-3-4-|-0-0-0-0-0-2-3-4-|-0-0-0-0-0-2-3-4-|-0-0-0-0-0-2-3-4-|

|-----------------------------------------------------------------|
|-----------------------------------------------------------------|
|---------------------------------4-4-4-4-4-4-4-4-3-3-3-3---------|
|-3-3-3-3-3-3-3-3-3-3-3-3-3-3-3-3-4-4-4-4-4-4-4-4-3-3-3-3-3-3-3-3-|
|-3-3-3-3-3-3-3-3-3-3-3-3-3-3-3-3-2-2-2-2-2-2-2-2-1-1-1-1-3-3-3-3-|
|-1-1-1-1-1-1-1-1-1-1-1-1-1-1-1-1-------------------------1-1-1-1-|
       and i'll just sit and grin, the money will roll  right  in
Tap to rate this tab
# A B C D E F G H I J K L M N O P Q R S T U V W X Y Z