Song name
# A B C D E F G H I J K L M N O P Q R S T U V W X Y Z

Nirvana - Even In His Youth (ver 2) tab

NIRVANA - Even in His Youth

VERSE
       C   G   G#  G
e -----------------------------------------------|
b -----------------------------------------------|
g -----5-----------------------------------------|
d -----5---5---6---5-----------------------------|
a -----3---5---6---5-----------------------------|
e ---------3---4---3-----------------------------|

CHORUS
   E5   C  G   D        End chorus on B
e -----------------------------------------------|
b -----------------------------------------------|
g ------5------7------------4--------------------|
d -2----5--5---7------------4--------------------|
a -2----3--5---5------------2--------------------|
e ---------3-------------------------------------|


Even in his youth (x3) 
He was nothing
Kept his body clean (x3) 
Going nowhere
Daddy was ashamed (x2)
He was something
Digrace the family name (x2)
The family name, he was something

CHORUS
He was born for your crew
I've got nothing left to prove
If I die before I wake
Hope I don't come back a slave

Even in his youth (x3) 
He was nothing
Kept his body clean (x3) 
Going nowhere
Daddy was ashamed (x2)
He was ashamed he was nothing
 
Digrace the family name (x2)
Family name, going nowhere

CHORUS
Leave this one, for your brew
I've got nothing left to prove
If I die before I wake
Hope I don't come back a slave
Aye-Yeah!

CHORUS
Leave this one, for your brew
I've got nothing left to prove
If I die before I wake
Hope I don't come back again
I'm dying!

Even in his youth (x2)
Yeah, yeah
Even in his youth (x2)
Yeah, yeah
Even in his youth 
Yeah, yeah
Even in his youth
Yeah, yeah (x5)
Tap to rate this tab
 
# A B C D E F G H I J K L M N O P Q R S T U V W X Y Z