Song name
# A B C D E F G H I J K L M N O P Q R S T U V W X Y Z

Nirvana - Stay Away tab

================================================================
                      Stay Away - Nirvana
================================================================
                      As recorded by Nirvana
                (From the 1991 Album Nevermind)

Words and Music by Nirvana


Tuning: (E A D G B e) - 'Standard Tuning'


Legend:
b = Bend
h = hammer on


Bass intro:
g------------------------------------|
d------0-0-0h3---------3-3-----------|
a--------------2-2--2------3-3-0-3-4-| x 4
E------------------------------------|


Intro riff:
e---------------------------------------------------|
b---------------------------------------------------|
g--7---7---0--4--4--------------0--5--0--5--6-------|
d--7---7---0--4--4---0--3---3---0--5--0--5--6-------| x 4
a--5---5---0--2--2---0--3---3---0--3--0--3--4-------|
E--------------------0--1---1-----------------------|


Verse:

Bass then:
e-------------------|
b-------------------|
g---5b--5b--5b--5b--|
d-------------------| x 4
a-------------------|
E-------------------|


Then intro riff

Then verse

Then intro riff


Bridge:
e--------------------------------------------------------------|
b--------------------------------------------------------------|
g--7--7--7--7--7--7--7--7--------------------3b--3b--3b--3b----|
d--7--7--7--7--7--7--7--7----4--4--4--4--4---------------------|x2
a--5--5--5--5--5--5--5--5----4--4--4--4--4---------------------|
E----------------------------2--2--2--2--2---------------------|

Then intro riff

Then verse

Then intro riff

Then bridge

Then intro riff

then bass fill

Then a fill (sounds like basically just strumming on muted strings):

e------------------------------------------------------------------|
b--x-x-x-x-x-x-x-x-x-x-x-x-x-x-x-x-x-x-x-x-x-x-x-x-0-0-0-0-0-0-0-0-|
g--x-x-x-x-x-x-x-x-x-x-x-x-x-x-x-x-0-0-0-0-0-0-0-0-0-0-0-0-0-0-0-0-|
d--x-x-x-x-x-x-x-x-0-0-0-0-0-0-0-0-0-0-0-0-0-0-0-0-0-0-0-0-0-0-0-0-|
a--0-0-0-0-0-0-0-0-0-0-0-0-0-0-0-0-0-0-0-0-0-0-0-0-0-0-0-0-0-0-0-0-|
E------------------------------------------------------------------|

Then intro riff

Then fade out into the fill and let the last note ring


Ending:

This is optional. However, you can hear that this is part of the actual song.

At the ending, while the last note is ringing, start to de-tune
your low E string until it is about one octave down from normal
low E. When it is that low continue to strum it until the song
is over.

And that's it! Please rate and comment!
Tap to rate this tab
# A B C D E F G H I J K L M N O P Q R S T U V W X Y Z