Song name
# A B C D E F G H I J K L M N O P Q R S T U V W X Y Z

Nirvana - Swap Meet tab

BAND: Nirvana
ALBUM: Bleach(1989)
SONG: Swap Meet

This is my first tab.

Guitar 1-(EbAbDbGbBbeb)Kurt Cobain

Intro                       Verse
                                                       x24
 PM--->     PM--->
|--------------------------||---------------------------||
|--------------------------||o-------------------------o||
|--------------------------||---------------------------|| 
|-------4----------3-------||---------4---------3-------||
|-0--3--4----0--3--3-------||o--------4---------3------o||
|-0--3-------0--3----3p2p0-||--0--3-------0--3----3p2p0-||

Chorus 
  G#5        B5     
               
||---------------------------------|
||o--------------------------------|
||--2--2--2-2--5----5-5-5-5-5-5----|
||--2--2--2-2--5----5-5-5-5-5-5----|
||o-0--0--0-0--3----3-3-3-3-3-3----|
||-----------------------------/12\|

 
                                   x3*             E5

|----------------|------------------||-------------------------|
|----------------|-----------------o||-------------------------|
|----------------|------------------||-------------------------|
|----------------|-0----------------||-----------3-3-3-3-------|*End with a
|----------------|-----------------o||-5-5--5-5--3-3-3-3-------|*E5 on the
|-0--3-2-1-0-1-3-|--0--3-2-1-0-1-0--||-3-3--2-2--1-1-1-1-/12\-0|*last Chorus
*skip 2nd half on the 3rd time and do the next bar.

Verse x20
Chorus x3

Solo 
     I don't know what the last few tabbers were hearing here,
     but its totally just this.        x3
||-----------|--------------------------||
||o----------|-8p6p0-8p6p0-8p6p0-8p6p0-o||
||--3-3-3-3--|--------------------------||
||---2-2-2-2-|--------------------------||
||o----------|-------------------------o||
||-----------|--------------------------||



|----------|-------------------|
|----------|-8p6p0-8p6p0-------|
|-3-3-3-3--|-------------0-----|
|--2-2-2-2-|-------------0-----|
|----------|-------------0--/10|
|----------|----------------/10|

Interlude?
                            x3
 PM-------------------------------------->
||----------------------------||---------------------------|
||o--------------------------o||---------------------------|
||---------------------------|||---------------------------| 
||--------4----------3--------||--------4---------3--------|
||o-0--3--4----0--3--3-------o||-----3--4---------3--------|
||--0--3-------0--3----3p2p0--||--0--3-------0--3----3p2p0-|

Verse x16
Chorus x3
Tap to rate this tab
# A B C D E F G H I J K L M N O P Q R S T U V W X Y Z