Song name
# A B C D E F G H I J K L M N O P Q R S T U V W X Y Z

Nirvana - Oh The Guilt tab

Song: Oh the guilt
Artist: Nirvana
Tunning: E standard
Tabbed by: Guitardave7

E|-X-------X--X--X--X----|
B|-X-------X--X--X--X----|
G|-X-------X--X--X--X----|
D|-X-------X--X--X--X----|
A|-X-------X--X--X--X----|
E|-X-------X--X--X--X----|
 
Heavy Distortion

Intro:
E|---------------|
B|---------------|
G|---------------|
D|-6-6-6-3/5-5---|
A|-6-6-6-3/5-5/10|
E|-4-4-4-1/3-3---|

Verse:
E|-------------------------------------|
B|-------------------------------------|
G|-------------------------------------|
D|-6-6-6--6-6-6--6-6-6--6-6-6-3/5-5-5-0|
A|-6-6-6--6-6-6--6-6-6--6-6-6-3/5-5-5-0|
E|-4-4-4--4-4-4--4-4-4--4-4-4-1/3-3-3-0|

Pre chorus:
E|----------------|
B|----------------|
G|----------------|
D|-6-6-6-3/5-5-5-0|
A|-6-6-6-3/5-5-5-0|
E|-4-4-4-1/3-3-3-0|

Chorus:
E|---------------------------------|
B|---------------------------------|
G|-----------------4-4-4-4-4-------|
D|-6-6-6-4-3-3-3-0-4-4-4-4-4-------|
A|-6-6-6-4-3-3-3-0-2-2-2-2-2-------|
E|-4-4-4-2-1-1-1-0-----------0-2-3-|

I'm still trying to figure out the solo.  I'll post it on here when i get it.
Tap to rate this tab
# A B C D E F G H I J K L M N O P Q R S T U V W X Y Z