Song name
# A B C D E F G H I J K L M N O P Q R S T U V W X Y Z

Nirvana - Sound Of Dentage tab

This is 100% accurate.  I'm sure of it.


(Lots of noise, breathing, and etc. for the Intro...)


Main Riff:
                                    
e|-----------------------------(2)-|
B|-----------------------------(2)-|
G|------------------------------2--|
D|-4-4---4-4---4-4---4-4---4-4--2--|
A|-4-4---4-4---4-4---4-4---4-4--2--|
E|-0h2---2-2---2-0---0h2---2-2-----|
   .......     ...............        


Pre-Chorus:

e|------------------||------------------||------------------||------------------|
B|------------------||------------------||------------------||------------------|
G|------------------||------------------||------------------||------------------|
D|-6-6-6-6-6--------||-6-6-6-6-6--------||-6-6-6-6-6--------||-6-6-6-6-6--------|
A|-6-6-6-6-6--------||-6-6-6-6-6--------||-6-6-6-6-6--------||-6-6-6-6-6--------|
E|-4-4-4-4-4--------||-4-4-4-4-4--------||-4-4-4-4-4-//17\--||-4-4-4-4-4-//12\--|



Interlude:
                                                                    
e|-----------------------------------------------------------------|
B|-----------------------------------------------------------------|
G|-----------------------------------------------------------------|
D|-2-2-2-2-2-2-2-2-2-2-2-2-2-2-2-2-6-6-6-6-6-6-6-6-7-7-7-7-7-7-7-7-|
A|-2-2-2-2-2-2-2-2-2-2-2-2-2-2-2-2-6-6-6-6-6-6-6-6-7-7-7-7-7-7-7-7-|
E|-0-0-0-0-0-0-0-0-0-0-0-0-0-0-0-0-4-4-4-4-4-4-4-4-5-5-5-5-5-5-5-5-|
       .........................................................



Intro 
Main Riff      x16
Pre-Chorus     
Main Riff      x14
Pre-Chorus
Main Riff      x8
Interlude      x2 
Main Riff      x8
Pre-chorus   
Main Riff      x12
Tap to rate this tab
 
# A B C D E F G H I J K L M N O P Q R S T U V W X Y Z